#1
I'm working on the last lick of the solo (the fast run), and I'm not sure which tab is right. I started working on it at Kristofer Dahl's website, which has a lesson on it. Then I looked at a powertab of it (found on UG), which sounded right, but was tabbed differently. Anyone know for sure of how it's supposed to be played?
Quote by Sonicxlover
Kensai, I think I'll get a flamboyant sig.

Quote by Sonicxlover
Kensai, I think I'll get a flamboyant sig.

Quote by Sonicxlover
Kensai, I think I'll get a flamboyant sig.


Parker Nitefly Mojo sonnn
Jackson DK2M Dinky
Carvin Legacy
Fender Blues Jr.
Roland Cube 30X
#2

----------------------------------------------------------14-------17-19b---17-
-----------------------------------------------------14h17---17s19-------------
--------------------------------------------13-14-16---------------------------
-----------------------------------13-14-16------------------------------------
--------------------------11-12-14---------------------------------------------
-------------11--12--14--------------------------------------------------------
-11--12--14--------------------------------------------------------------------


what may not be apparent just from looking at the tab is that the note durations for the notes on bottom two strings are sixteenth notes, but after that its faster, I don't have the sheet music in front of me, its some type of triplet, six notes per beat

barre the first finger over the top two strings for those notes at 14th fret on those strings

I'd like to check out that Kris Dahl lesson, could you post the link? (or is it paid)?
#3
well that doesn't look very good!

let's try that again:


-----------------------------------------------------
-----------------------------------------------------
--------------------------------------------13-14-16-
-----------------------------------13-14-16----------
--------------------------11-12-14-------------------
-------------11--12--14------------------------------
-11--12--14------------------------------------------


-----14-------17-19b---17-
14h17---17s19-------------
--------------------------
--------------------------
--------------------------
--------------------------
#4
Alright, that looks like the second tab I got. Thanks a ton.

Btw, the lessons are on freelicks.net. You gotta go to the solo section. They're free, and they help a ton.
Quote by Sonicxlover
Kensai, I think I'll get a flamboyant sig.

Quote by Sonicxlover
Kensai, I think I'll get a flamboyant sig.

Quote by Sonicxlover
Kensai, I think I'll get a flamboyant sig.


Parker Nitefly Mojo sonnn
Jackson DK2M Dinky
Carvin Legacy
Fender Blues Jr.
Roland Cube 30X
#5
they have the whole thing there? thanks dude
Last edited by Dude121 at Mar 22, 2007,