Page 1 of 4
#1
Same rules as last time....

This was a great thread and just died...even bumping it coudn't revive it...so I made...yet another one.
Quote by Everybody
Plus_the_Bear is the entertainment event of the holiday season!



My rig:

Ibanez Custom Chinese Fireball
Epiphone Les Paul Standard
2 Crate solid state half-stack cabinets and ampheads.
Digitech 2000 Whammy/Wah Pedal
Dunlops Picks
#2
I'm not sure what that tab is, reminds me of Hate Eternal for some reason....
LAMMERGEIER
Disclaimer: Dyer's Eve can not be held responsible for the loss of time spent or the insult to your aural senses as a result of exploring this link
#3
Sorry...computer slowed down...needed to go fetch it from my documents.(I transcribed this one myself).


|------------------------------------------------------------------------------|
|------------------------------------------------------------------------------|
|------------------------------------------------------------------------------|
|------------------------------------------------------------------------------|
|9--9-9-9--9-9-12--12-12-12--12-12-7--7-7-7--7-7--10-10-10--12-14-14-14--------|
|7--7-7-7--7-7-10--10-10-10--10-10-5--5-5-5--5-5--8--8--8---10-12-12-12--------|


Black Metal Standard E
Quote by Everybody
Plus_the_Bear is the entertainment event of the holiday season!



My rig:

Ibanez Custom Chinese Fireball
Epiphone Les Paul Standard
2 Crate solid state half-stack cabinets and ampheads.
Digitech 2000 Whammy/Wah Pedal
Dunlops Picks
#4
WTF kind of shit ass black metal band's guitarist actually plays that riff in one of their songs?

I was gunna say My Chemical Romance actually..
1992 Gibson Explorer (Seymour Duncan '59 neck, Custom Custom bridge)
Jackson King V Professional Std. (Seymour Duncan Invaders)
Mesa/Boogie Nomad 55
Mesa/Boogie 412 Recto. O/S Cabinet
Boss ME-50
MXR 10-Band EQ
#5
First....I cant say the band...two, you're an ignorant **** for calling the band bad....second....you obviously aren't playing it anything like it sounds, because it's not played fast or tremmed...all down strokes.

hint: Rhythm is like...dum, dum dum dum, dum dum dum, dum dum dum, dum dum dum, dum dum dum, dum dum, dum dum dum dum dum dum dum.
Quote by Everybody
Plus_the_Bear is the entertainment event of the holiday season!



My rig:

Ibanez Custom Chinese Fireball
Epiphone Les Paul Standard
2 Crate solid state half-stack cabinets and ampheads.
Digitech 2000 Whammy/Wah Pedal
Dunlops Picks
#6
Deicide aren't Black Metal and the song doesn't sound remotely like it...besides...it's not a tab you'll find on this site.(or anywhere else for that matter, except for right here in this thread).

EDIT: at the guy above me who actually thought he got it but my tab was off.
Quote by Everybody
Plus_the_Bear is the entertainment event of the holiday season!



My rig:

Ibanez Custom Chinese Fireball
Epiphone Les Paul Standard
2 Crate solid state half-stack cabinets and ampheads.
Digitech 2000 Whammy/Wah Pedal
Dunlops Picks
#7
They are not triplets....sorry, they are supposed to be play seperately. Look at the ryhym hint I gave, then re-try it.
Quote by Everybody
Plus_the_Bear is the entertainment event of the holiday season!



My rig:

Ibanez Custom Chinese Fireball
Epiphone Les Paul Standard
2 Crate solid state half-stack cabinets and ampheads.
Digitech 2000 Whammy/Wah Pedal
Dunlops Picks
#8
If this one gets too hard I have a hint that will likely give it away.
Quote by Everybody
Plus_the_Bear is the entertainment event of the holiday season!



My rig:

Ibanez Custom Chinese Fireball
Epiphone Les Paul Standard
2 Crate solid state half-stack cabinets and ampheads.
Digitech 2000 Whammy/Wah Pedal
Dunlops Picks
#9
This is the exact reason the last one failed.

If you post tabs that aren't even findable, and people don't recognise it, no-one will bother.

That plus laziness. A lot of the time, people couldn't be bothered to put up a tab if they guessed one.

All in all, this thread is doomed to fail just as the previous one did.
LAMMERGEIER
Disclaimer: Dyer's Eve can not be held responsible for the loss of time spent or the insult to your aural senses as a result of exploring this link
#10
It's an easy tab....

Ok...think czech+sewer water.

EDIT: Bump.

Since everyone has given up, I'll give it to you: Stiny Plamenu-Voderenska Mafie.
Quote by Everybody
Plus_the_Bear is the entertainment event of the holiday season!



My rig:

Ibanez Custom Chinese Fireball
Epiphone Les Paul Standard
2 Crate solid state half-stack cabinets and ampheads.
Digitech 2000 Whammy/Wah Pedal
Dunlops Picks
Last edited by Plus_the_Bear at Mar 22, 2007,
#12
No, it was Voderenska Mafie by Stiny Plamenu.

RIFF1:

|-----------------------------|
|-----------------------------|
|-----------------------------|
|-12--10--9--10--10--9--10--9-|
|-0---0---0--0---7---7--7---7-|
|-----------------------------|

RIFF2:

|----------------|
|----------------|
|----------------|
|-7--8--7--9--10-|
|-0--6--0--8--8--|
|----------------|

RIFF3:

|------|
|------|
|------|
|------|
|-2--3-|
|-0--1-|


Extremely easy one...Black Metal Standard E
Quote by Everybody
Plus_the_Bear is the entertainment event of the holiday season!



My rig:

Ibanez Custom Chinese Fireball
Epiphone Les Paul Standard
2 Crate solid state half-stack cabinets and ampheads.
Digitech 2000 Whammy/Wah Pedal
Dunlops Picks
#13
Quote by Plus_the_Bear
It's an easy tab....

Ok...think czech+sewer water.

EDIT: Bump.

Since everyone has given up, I'll give it to you: Stiny Plamenu-Voderenska Mafie.



Yeah go for something less impossible next time. Doesn't need to be mainstream, though.

That was way too hard haha.
#14
My new one(see above post) is MUCH easier.
Quote by Everybody
Plus_the_Bear is the entertainment event of the holiday season!



My rig:

Ibanez Custom Chinese Fireball
Epiphone Les Paul Standard
2 Crate solid state half-stack cabinets and ampheads.
Digitech 2000 Whammy/Wah Pedal
Dunlops Picks
#15
I think that's Darkthrone - Transylvanian Hunger?

B||----------------------------------------------------------------------||
F#|----------------------------------------------------------------------||
D||----------------------------------------------------------------------||
A||---777-777-777-777-777-777--7h8-8---777-777-777-777-777-777---7h6-6-6-||
E||---777-777-777-777-777-777--7h8-8---777-777-777-777-777-777---7h6-6-6-||
A||---777-777-777-777-777-777--7h8-8---777-777-777-777-777-777---7h6-6-6-||


Drop A, Death metal.
Gear:
SX SJB62-5 5-String Fretless Jazz Copy (EADGC)
Ibanez GSR200 4-String Fretted (BEAD)
Ibanez IBZ10B 10 Watt Practice Combo Amp
DR Stainless Steel Lo-Riders
Yamaha Air Cell Straps
#16
Nile...no clue what song though, not off of Annihaltion for sure, which is all I have.
Quote by Everybody
Plus_the_Bear is the entertainment event of the holiday season!



My rig:

Ibanez Custom Chinese Fireball
Epiphone Les Paul Standard
2 Crate solid state half-stack cabinets and ampheads.
Digitech 2000 Whammy/Wah Pedal
Dunlops Picks
#17
It is off Annihilation. =P Big hint here, it's from one of the three 7+ minute songs.
Gear:
SX SJB62-5 5-String Fretless Jazz Copy (EADGC)
Ibanez GSR200 4-String Fretted (BEAD)
Ibanez IBZ10B 10 Watt Practice Combo Amp
DR Stainless Steel Lo-Riders
Yamaha Air Cell Straps
#18
Is it the intro riff?
Quote by Everybody
Plus_the_Bear is the entertainment event of the holiday season!



My rig:

Ibanez Custom Chinese Fireball
Epiphone Les Paul Standard
2 Crate solid state half-stack cabinets and ampheads.
Digitech 2000 Whammy/Wah Pedal
Dunlops Picks
#19
Not the "main" intro riff, but yeah, one of the intro riffs.
Gear:
SX SJB62-5 5-String Fretless Jazz Copy (EADGC)
Ibanez GSR200 4-String Fretted (BEAD)
Ibanez IBZ10B 10 Watt Practice Combo Amp
DR Stainless Steel Lo-Riders
Yamaha Air Cell Straps
#20
It is Annihalation of the Wicked...right before the solo.

Right?
Quote by Everybody
Plus_the_Bear is the entertainment event of the holiday season!



My rig:

Ibanez Custom Chinese Fireball
Epiphone Les Paul Standard
2 Crate solid state half-stack cabinets and ampheads.
Digitech 2000 Whammy/Wah Pedal
Dunlops Picks
Last edited by Plus_the_Bear at Mar 22, 2007,
#21
It's from AoTW, it's the riff under the one lead part in the beginning - before the vocals come in. It's that triplet-ish riff.
Gear:
SX SJB62-5 5-String Fretless Jazz Copy (EADGC)
Ibanez GSR200 4-String Fretted (BEAD)
Ibanez IBZ10B 10 Watt Practice Combo Amp
DR Stainless Steel Lo-Riders
Yamaha Air Cell Straps
#22
Well..at least I got it. All I heard in the riff before the solo was a bunch of the same chord....then a half step up....then back to the original chord....then one half step down....



PM------------|         PM|     PM|       PM|     PM|
  E E S E S E E E E   E E E E E E E E   E E E E E E E E
|-------------------|-----------------|-----------------|
|-------------------|-----------------|-----------------|
|-------------------|-----------------|-----------------|
|-------------------|-9S2-----4S2-----|-9S2-----4S2-----|
|-------------------|-9S2-----4S2-----|-9S2-----4S2-----|
|-0-1-1-1-1-0-1-0---|-7S0-0-0-2S0-0-0-|-7S0-0-0-2S0-0-0-|


  S S S S S S S S S S S S S S S S   S S S S S S S S S S S S S S S S
|---------------------------------|----------------------------------|
|---------------------------------|----------------------------------|
|---------------------------------|----------------------------------|
|---------------------------------|----------------------------------|
|-4-4-1-1-----1-1-4-4-1-1-----1-1-|-4-4-1-1-----1-1-4-4-1-1-----1-1--|
|---------4-4-------------4-4-----|---------4-4-------------4-4------|


      PM--|     PM--|       PM--|     PM--|
   E  E E E  E  E E E    E  E E E  E  E E E
|---------------------|---------------------|
|---------------------|---------------------|
|---------------------|---------------------|
|---------------------|---------------------|
|-[2]-----------------|-[3]-----------------|
|-----0-0-0-[2]-0-0-0-|-----0-0-0-[3]-0-0-0-|


  C#
  S S S S S S S S S S S S S S S S   S S S S S S S S S S S S S S S S
|---------------------------------|----------------------------------|
|---------------------------------|----------------------------------|
|---------------------------------|----------------------------------|
|---------------------------------|----------------------------------|
|-4-4-1-1-----1-1-4-4-1-1-----1-1-|-4-4-1-1-----1-1-4-4-1-1-----1-1--|
|---------4-4-------------4-4-----|---------4-4-------------4-4------|


   Interlude 1
    Q=150
    F#F5    F#F5      F#F5    F#F5
        PM|     PM|       PM|     PM|
    E E E E E E E E   E E E E E E E E
||------------------|-----------------|
||o-----------------|-----------------|
||------------------|-----------------|
||--4S3-----4S3-----|-4S3-----4S3-----|
||o-4S3-----4S3-----|-4S3-----4S3-----|
||--2S1-1-1-2S1-1-1-|-2S1-1-1-2S1-1-1-|


  S S S S S S S S S S S S S S S S   S S S S S S S S S S S S S S S S
|---------------------------------|-----------------------------------||
|---------------------------------|----------------------------------o||
|---------------------------------|-----------------------------------||
|---------------------------------|-----------------------------------||
|-4-4-1-1-----1-1-4-4-1-1-----1-1-|-4-4-1-1-----1-1-4-4-1-1-----1-1--o||
|---------4-4-------------4-4-----|---------4-4-------------4-4-------||


    F#5A5 F#5   F#5 F#F#A5A5F#5   F#5
            PM|               PM|
    Q  Q  E E E E   E E E E E E E E
||----------------|-----------------|
||o---------------|-----------------|
||----------------|-----------------|
||--4--7--4-----4-|-4-4-7-7-4-----4-|
||o-4--7--4-----4-|-4-4-7-7-4-----4-|
||--2--5--2-0-0-2-|-2-2-5-5-2-0-0-2-|


  F#5  A5 F#5 Eb5   C#5             E5             Em/G  E5
            PM--|                                           PM
                     |----3-----|         |----3-----|
  +Q   Q  E E E E    S    S     S   Q.    S    S     S   Q  E
|-----------------|-<5>-(<5>-(<5>------<5>-(<5>-(<5>-------||
|-----------------|------<5>--(<5>-----------<5>--(<5>------o||
|-----------------|------------<5>------------------<5>--------||
|-(4)--7--4-------|-----------------2--------------------2-----||
|-(4)--7--4-------|-----------------2--------------------2----o||
|-(2)--5--2-0-0-0-|-----------------0--------------------0--0--||


Death Metal Standard C
EDIT: Btw dude....the Drop A tuning that gave the band away. I mean...Drop A is a rare tuning...even for death metal.
Quote by Everybody
Plus_the_Bear is the entertainment event of the holiday season!



My rig:

Ibanez Custom Chinese Fireball
Epiphone Les Paul Standard
2 Crate solid state half-stack cabinets and ampheads.
Digitech 2000 Whammy/Wah Pedal
Dunlops Picks
#23
Yeah, I know. I even had that it gave it away in my original post, but then I edited it out :P
Gear:
SX SJB62-5 5-String Fretless Jazz Copy (EADGC)
Ibanez GSR200 4-String Fretted (BEAD)
Ibanez IBZ10B 10 Watt Practice Combo Amp
DR Stainless Steel Lo-Riders
Yamaha Air Cell Straps
#24
HINT to my song......**** THE MEDIA, **** THE MAINSTREAM.....
bump and hint number 2....This song was used to make a cheesy and funny Nickelodeon music video.
Quote by Everybody
Plus_the_Bear is the entertainment event of the holiday season!



My rig:

Ibanez Custom Chinese Fireball
Epiphone Les Paul Standard
2 Crate solid state half-stack cabinets and ampheads.
Digitech 2000 Whammy/Wah Pedal
Dunlops Picks
Last edited by Plus_the_Bear at Mar 22, 2007,
#25
Sorry for the double post....but it's the only way to bump this damn thing.

Come on guys...give it one more try!
Quote by Everybody
Plus_the_Bear is the entertainment event of the holiday season!



My rig:

Ibanez Custom Chinese Fireball
Epiphone Les Paul Standard
2 Crate solid state half-stack cabinets and ampheads.
Digitech 2000 Whammy/Wah Pedal
Dunlops Picks
#27
Here's mine

E5 F#G5
4/4
PM PM PM PM
E E E E E E E E E E E E E E E E
||------------------------|-------------------|
||o--------5-----5-----5--|----5--------------|
||---------4-----4-----4--|----4--------------|
||---------2-----2-----2--|----2--------------|
||o-2-2---(2)-2-(2)-2-(2)-|-2-(2)-2-2-4s5-5-5-|
||--0-0-0-----0-----0-----|-0-----0-0-2s3-3-3-|


E5 G5Bb5
PM PM PM PM
E E E E E E E E E E E E E E E E
|-----------------------|--------------------|
|--------5-----5-----5--|----5---------------|
|--------4-----4-----4--|----4---------------|
|--------2-----2-----2--|----2---------------|
|-2-2---(2)-2-(2)-2-(2)-|-2-(2)-2-2-5s8-8-8--|
|-0-0-0-----0-----0-----|-0-----0-0-3s6-6-6--|


E5 F#G5
PM PM PM PM
E E E E E E E E E E E E E E E E
|-----------------------|-------------------|
|--------5-----5-----5--|----5--------------|
|--------4-----4-----4--|----4--------------|
|--------2-----2-----2--|----2--------------|
|-2-2---(2)-2-(2)-2-(2)-|-2-(2)-2-2-4s5-5-5-|
|-0-0-0-----0-----0-----|-0-----0-0-2s3-3-3-|


E5 N.C. F5
PM PM PM ~
E E E E E E E E E E +E E E E E E
|----------------------|-----------------------||
|--------5-----5-------|--------------------o--||
|--------4-----4-------|-----------------------||
|--------2-----2-------|-----------------------||
|-2-2---(2)-2-(2)-2----|-5----------2---3-3-o--||
|-0-0-0-----0-----0-/7-|---7-(7)-3---3-1-1-----||


Progressive metal-Standard C
#28
Opeth-Ghost of Perdition?
Quote by Everybody
Plus_the_Bear is the entertainment event of the holiday season!



My rig:

Ibanez Custom Chinese Fireball
Epiphone Les Paul Standard
2 Crate solid state half-stack cabinets and ampheads.
Digitech 2000 Whammy/Wah Pedal
Dunlops Picks
#29
My only guess could be something off the Train of Thought album.

But i'm not as familiar with that album as I am with the others.

EDIT: Dream Theater - Honor Thy Father.

Brb.

C --------------------------------------------------------------------|
G --------------------------------------------------------------------|
D#--------------------------------------------------------------------|
A#--6\3------------------6\3-------------------3-------3--8---5---6---|
F --6\3------------------6\3-------------------3-------3--8---5---6---|
C --6\3--00--0000-0000---6\3--00--0000--0000---3--000--3--8---5---6---|


Sludge Metal.
LAMMERGEIER
Disclaimer: Dyer's Eve can not be held responsible for the loss of time spent or the insult to your aural senses as a result of exploring this link
Last edited by Dyer's Eve at Mar 23, 2007,
#30
Seems kinda like CoC - In the Arms of God, from the rhythm/chording.

|--------------|----------------|--------------|--------------|
|--------------|----------------|--------------|--------------|
|--------------|----------------|--------------|--------------|
|--------------|----------------|--------------|-3s5-5s6-5----|
|-3-2-----3----|-3-2------------|-3-2-----2----|--------------|
|-----3-4-1----|-----3-4----(4)-|-----3-4-0----|--------------|


D standard, death metal
Gear:
SX SJB62-5 5-String Fretless Jazz Copy (EADGC)
Ibanez GSR200 4-String Fretted (BEAD)
Ibanez IBZ10B 10 Watt Practice Combo Amp
DR Stainless Steel Lo-Riders
Yamaha Air Cell Straps
#32
Oh god, this one's going to be a bitch.
EDIT: New rule to this thread:

To keep this thread alive, no tab can remain for mor than a day. If no-one can figure it out, I will post a new tab(will be easy), to get the thread going again.
Quote by Everybody
Plus_the_Bear is the entertainment event of the holiday season!



My rig:

Ibanez Custom Chinese Fireball
Epiphone Les Paul Standard
2 Crate solid state half-stack cabinets and ampheads.
Digitech 2000 Whammy/Wah Pedal
Dunlops Picks
#33
Death - Empty Words.

Brb.

B ---|-----------------------------------------------------------|
F#---|-----------------------------------------------------------|
D ---|----9---7---10----9---7---5-7----9---7----5---4---5---5-7--|
A ---|-7----7----7----7---7---7-----7----7----7---5---5---5------|
E -7-|-----------------------------------------------------------|
B ---|-----------------------------------------------------------|


Gothic Metal.

I think this is actually a keyboard part, but whatever.
LAMMERGEIER
Disclaimer: Dyer's Eve can not be held responsible for the loss of time spent or the insult to your aural senses as a result of exploring this link
Last edited by Dyer's Eve at Mar 23, 2007,
#34
heres mine its really easy, im not gonna tab it out so heres the notes.
A b c, A b c A b c, F g a F g a, a c b, just repeat it a few times at a slow pace and if you have any taste at all you should know it. its newwavebritishsteel and its a classic.
#35
I dont listen to any gothic metal really....
Quote by Everybody
Plus_the_Bear is the entertainment event of the holiday season!



My rig:

Ibanez Custom Chinese Fireball
Epiphone Les Paul Standard
2 Crate solid state half-stack cabinets and ampheads.
Digitech 2000 Whammy/Wah Pedal
Dunlops Picks
#36
Quote by Rything Shred
heres mine its really easy, im not gonna tab it out so heres the notes.
A b c, A b c A b c, F g a F g a, a c b, just repeat it a few times at a slow pace and if you have any taste at all you should know it. its newwavebritishsteel and its a classic.


breakin the law by priest
Quote by pedaler466
Shreadhead22 had nothing helpful to say to me. He just immediatly started being a prick.

Quote by Yngwi3
Shredhead's advice is the best in the thread.


-Mesa Roadster
-Mesa 4x12
-'93 Gibby LP studio
-535q
-CE5/DD-220
-TS9dx
-EB volume
-Shure Wireless
Last edited by shredhead22 at Mar 23, 2007,
#37
Quote by Dyer's Eve
Death - Empty Words.

Brb.

B ---|-----------------------------------------------------------|
F#---|-----------------------------------------------------------|
D ---|----9---7---10----9---7---5-7----9---7----5---4---5---5-7--|
A ---|-7----7----7----7---7---7-----7----7----7---5---5---5------|
E -7-|-----------------------------------------------------------|
B ---|-----------------------------------------------------------|


Gothic Metal.

I think this is actually a keyboard part, but whatever.


Arcturus - Kinetic!?
#38
They've just released a new album for the first time in a while.
LAMMERGEIER
Disclaimer: Dyer's Eve can not be held responsible for the loss of time spent or the insult to your aural senses as a result of exploring this link
#40
Well...Ph3nom didn't post a tab...so here goes:

Death Metal Standard D

Riff C (0:39)
    Q=180
   7/4
    PM----------------------|       PM-------------------
||------------------------------------------------------|
||o-----------------------------------------------------|
||------------------------------------------------------|
||--------------------2-3-5-------5---------------------|
||o-------------1-2-4---------<7>-----------------------|
||--1-1-1-1-1-0-------------0-------3p0h3p0h3-4-1h3p1p0-|
|
|   PM--------------------|         PM-------------------
||------------------------------------------------------|
||o-----------------------------------------------------|
||--------------------------------0---------------------|
||-----------------------------6----5p2h5p2-5h6-3h5-3p2-|
||o-------------------2-3-5-4---------------------------|
||--1-1-1-1-1-0-1-2-4-----------------------------------|


 1.
 -------------------------|     PM------|
|---------------------------------------------||
|-----------------------------8--------------o||
|---------------------------------------------||
|-------------------2-3-5-------6-6-6-6-6-6---||
|-------------1-2-4---------7----------------o||
|-1-1-1-1-1-0-------------0-------------------||
|
|-----------------------|       PM------|
|---------------------------------------------||
|--------------------------------------------o||
|-----------------------------0---------------||
|---------------------------4-----------------||
|-------------------2-3-5-4------------------o||
|-1-1-1-1-1-0-1-2-4-------------1-3-4-4-4-1---||


  2.
  PM----------------------|     PM------|
|-----------------------------------------------|
|-----------------------------8-----------------|
|-----------------------------------------------|
|-------------------2-3-5-------3-3-3-3-3-2-----|
|-------------1-2-4---------7-------------------|
|-1-1-1-1-1-0-------------0---------------------|
|
| PM--------------------|       PM------|
|-----------------------------------------------|
|-----------------------------------------------|
|-----------------------------0-----------------|
|---------------------------4-------------------|
|-------------------2-3-5-4---------------------|
|-1-1-1-1-1-0-1-2-4-------------1-1-1-1-1-0-----|


   Riff D (0:49)
    Q=240
   4/4
    PM--|    PM   PM     PM  PM  PM
||---------------------|-----------------|
||o--------------------|-----------------|
||---------------------|-----------------|
||---------9----9----7-|---6---6---7-6---|
||o--------------------|---------------8-|
||--0-1-0----7----5----|-4---4---4-------|
|
|   PM--|    PM   PM     PM  PM  PM
||---------------------|-----------------|
||o--------------------|-----------------|
||---------------------|-----------------|
||--------12---12---10-|---6---6---7-6---|
||o--------------------|---------------8-|
||--0-1-0----7----5----|-4---4---4-------|


  PM  PM    PM|             PM   PM  PM
|-----------------|--------------------|
|-----------------|--------------------|
|-----------------|--------------------|
|---6---7h9-----9-|-----------10---9---|
|-----------------|-0h12h14------------|
|-4---4-----7-8---|---------7----7---1-|
|
| PM  PM    PM|     PM      PM   PM  PM
|-----------------|--------------------|
|-----------------|--------------------|
|-----------------|----------------7---|
|---6---7p6-----7-|----9p=6----7-------|
|-----------------|--------------------|
|-4---4-----4-5---|-4-------4----4---1-|


  PM--|    PM   PM     PM  PM  PM        PM  PM    PM|
|--------------------|-----------------|-----------------|--------------------|
|--------------------|-----------------|-----------------|--------------------|
|--------------------|-----------------|-----------------|-----------------7--|
|--------9----9----7-|---6---6---7-6---|---6---7h9-----9-|-----------------7--|
|--------------------|---------------8-|-----------------|-14p12p==0-6--3--5--|
|-0-1-0----7----5----|-4---4---4-------|-4---4-----7-8---|-----------4--1-----|
|
| PM--|    PM   PM     PM  PM  PM        PM  PM    PM|      PM
|--------------------|-----------------|-----------------|--------------------|
|--------------------|-----------------|-----------------|--------------------|
|--------------------|-----------------|-----------------|--------------------|
|-------12---12---10-|---6---6---7-6---|---6---7p6-----7-|-------9---------7--|
|--------------------|---------------8-|-----------------|-----------6--3--5--|
|-0-1-0----7----5----|-4---4---4-------|-4---4-----4-5---|--4--------4--1--5--|


 7/4
    PM|   PM    PM|   PM  PM      PM|   PM    PM|   PM
|-----------------------------|----------------------------|
|-----------------------------|----------------------------|
|-----------7-----------------|-----------7----------------|
|-6-----3-----6-----6---6---6-|-6-----3-----6-----6---3----|
|---------4-------------------|---------4------------------|
|---4-1---------4-4---4---4---|---4-1---------4-4---1---4--|
|
|   PM|   PM    PM|   PM  PM      PM|   PM    PM|   PM
|-----------------------------|----------------------------|
|-----------------------------|----------------------------|
|-----------7-----------------|-----------7----------------|
|-6-----3-----6-----6---3---2-|-6-----3-----6-----6---3----|
|---------4-------------------|---------4---------------2--|
|---4-1---------4-4---1---0---|---4-1---------4-4---1---0--|


 7/4
    PM|   PM    PM|   PM  PM      PM|   PM    PM|   PM    PM
|-----------------------------|------------------------------||
|-----------------------------|-----------------------------o||
|-----------7-----------------|-----------7-7-----7---4-4----||
|-6-----3-----6-----6---6---6-|-6-----3----------------------||
|---------4-------------------|---------4-----5-5---2-------o||
|---4-1---------4-4---4---4---|---4-1---------------------1--||
|
|   PM|   PM    PM|   PM  PM      PM|   PM    PM|   PM  PM
|-----------------------------|------------------------------||
|-----------------------------|-----------------------------o||
|-----------7-----------------|-----------7------------------||
|-6-----3-----6-----6---3---2-|-6-----3-----6-----6---3---3--||
|---------4-------------------|---------4-------------------o||
|---4-1---------4-4---1---0---|---4-1---------4-4---1---1----||
Quote by Everybody
Plus_the_Bear is the entertainment event of the holiday season!



My rig:

Ibanez Custom Chinese Fireball
Epiphone Les Paul Standard
2 Crate solid state half-stack cabinets and ampheads.
Digitech 2000 Whammy/Wah Pedal
Dunlops Picks
Last edited by Plus_the_Bear at Mar 23, 2007,
Page 1 of 4