#1
im trying to tab out One Good Reason by Celldweller (drop C), and I kno its a simple song, but im having trouble getting parts of it.

i have the chorus...

|-
|-
|-
|-3-4-1--0--0-5-8-1--0-|
|-3-4-1--0--0-5-8-1--0-|
|-3-4-1--0--0-5-8-1--0-|

and the little part after...
|-
|-
|-7^~---7^~---7^~--7^~----7^~----7^~-|
|-
|-
|-

but im having trouble with the main/verse riff. i think itssomrthing like this, but tell me what u think.

|-
|-
|------------5^--
|-3-1-0-0--x----
|-3-1-0-0--3^-
|-3-1-0-0-------


thanks in advance.
Member #20 of the Guitarists Born in 1991 Club PM blues_rocker or greendayguitar to join.

Member Of The Anti - Ibanez Militia


Quote by d. b. cooper
I listen to metal, therefore I do not have feelings...


Quote by -blaze-
anti-depressants for emo kids.