#1
E---------------------------------------|
B---------------------------------------|
G---------3-----------------------------|
D-5---1---3---3-------------------------|
A-5---1---1---3-///////////////////////-|
D-5---1-------3-////////////-PICK SLIDE-|


When I'm playing with the song it sounds realllly bad. It's drop D, does anyone know if this is correct? If not where could i find the correct tab?
Matthew 7:7 ""Ask and it will be given to you; seek and you will find; knock and the door will be opened to you."

Pop Punk! Check us out!: Flinch
#2
that's 2nd guitar. If you're wanting lead it's

E------------------------------|
A------------------------------|
D-10----10----10----9----------|
G-10----10----10----10---------|
B-8-----8-----8-----8----------|
D------------------------------|


then the pick slide
#3
then are the palm mutes with what i posted above?
Matthew 7:7 ""Ask and it will be given to you; seek and you will find; knock and the door will be opened to you."

Pop Punk! Check us out!: Flinch