#1
yeah this is pretty rough
it's something i just came up with about 20 minutes ago and i thought it was pretty good
let me know what you think


VERSE

e|-----------1-------1---------1---------0-----------0----------0---------------------------------
B|--------------3-------3-------------------1-----------1------------------3-------3--------3-------
G|-------------------------------------------------------------------------------3-------3-------------
D|--------0--------0--------0------------------------------------------------------------------------
A|-------------------------------------3----------3------------3---------1--------1--------1--------
E|-----------------------------------------------------------------------------------------------------


e|-----------------------------------0-----------------------------
B|---------2----------3------------------------------------------
G|------------2----------2-------------------------------------
D|----------------------------------------------------------
A|-----0----------0----------0---------------------------------
E|----------------------------------------------------------


CHORUS

e|-----0---------0------------0---------1-------1-------1-----------------------------
B|--------1----------1---------------------3-------3--------------------------------
G|-----------------------------------------------------------------------------
D|------------------------------------0--------0-------0--------------------------
A|--3--------3-----------3--------------------------------------------------------
E|-----------------------------------------------------------------------------

ends on
e|----1-----
B|----3-----
G|----2-----
D|----0-----
A|-----------
E|-----------


BRIDGE PART
which is basically the same thing as the verse
lol


e|-----------1-------3---------1---------0-----------1----------0---------------------------------
B|--------------3-------3-------------------1-----------1------------------3-------4--------3-------
G|-------------------------------------------------------------------------------3-------3-------------
D|--------0--------0--------0------------------------------------------------------------------------
A|-------------------------------------3----------3------------3---------1--------1--------1----------
E|------------------------------------------------------------------------------------------------------


e|-----------------------------------0-----------------------------
B|---------2----------3------------------------------------------
G|------------2----------2-------------------------------------
D|----------------------------------------------------------
A|-----0----------0----------0---------------------------------
E|----------------------------------------------------------