RavenKlown
Registered User
Join date: Dec 2006
349 IQ
#1
E|--------------------------------|
B|---------------------------------|
G|--------------------------------|
D|-------10-------8------7-6-5-|
A|-------10-------8------7-6-5-|
D|-000-10 000-8-000-7-6-5--|x3
pm... pm... pm...
the zeros are 16th note triplets while the bar chords are eigth notes

it needs to have a drivi9ng metalica type sound but more metal core...i need some advice on where to take it...and what it should be used as(chorus verse intro)
freedoms_stain
...
Join date: Dec 2006
276 IQ
#2
i think this would sound better:


E|--------------------------------|
B|---------------------------------|
G|--------------------------------|
D|-------10-------8------7----7-6-5-|
A|-------10-------8------7----7-6-5-|
D|-000-10-000-8-000-7----7-6-5--|x3

play it as like part of the intro, then mute it for the verses
RavenKlown
Registered User
Join date: Dec 2006
349 IQ
#3
So whats the diffrernce? it not being palm muted at all? I mean what can i add to it....like a lead part and how to branch off I need tips on how to write