'Tallica fan09
Registered User
Join date: May 2007
21 IQ
#1
hey made my own metal riff added a "solo" to it...
the dots are the pms


-----------------------------------------------------------------------------------
-----------------------------------------------------------------------------------
----------------------------4----444444----5---5---5-----------------------------------------
--2222----2----2222----4----444444----5---5---5----2------------------------------------
--2222----2----2222----2----222222----3---3---3----2-------------------------------------
--0000----0----0000--------------------------------------0-----------------------------------
........ .......
Its somewhat of a start it keeps goin like that for the ryhthem then the later in the song would be

-----12-12-12-12-12-14-14-14-14-14-15-15-15-15-15-----------------------
------------------------------------------------------------------------------------------
------------------------------------------------------------------------------------------
------------------------------------------------------------------------------------------
------------------------------------------------------------------------------------------
------------------------------------------------------------------------------------------

------------------------------------------------------------------------------------------------------------
-----12-12-12-14-14-14-15-15-15------------------------------------------------------------------
---------------------------------------------12-14-15b--------------------------------------------------
------------------------------------------------------------------12-14-15-------------------------------
---------------------------------------------------------------------------------12-14-15----------------
-----------------------------------------------------------------------------------------------12-14-15--
its some what of a solo just tremlo pick thro this and it should sound pretty good

plz comment
Last edited by 'Tallica fan09 at May 12, 2007,
'Tallica fan09
Registered User
Join date: May 2007
21 IQ
#3
it wont put the pms in so ill jus say when the 022 power chords are right by eachother there pms
'Tallica fan09
Registered User
Join date: May 2007
21 IQ
#6
when i made it i intened it to be more then 12 secs but that was all the notes lol
fragydig529
Tab Contributor
Join date: Mar 2006
1,073 IQ
#7
So, I remixed it a bit, and added extra parts not in your tab.

Just to see what I could do with it.
Sounds pretty good dude.
I love the rhythm riff.

Heres my version.
If you want tabs for this one let me know.

.::Attached Zipped Midi File::.
Attachments:
This2.zip
yawn
Be back later.
Join date: Sep 2005
2,701 IQ
#8
It's a good start, but the power chord riff isn't too interesting, and the solo overall just feels like an excercise run through a scale. Maybe play around more interesting melodic patterns.
yawn
Be back later.
Join date: Sep 2005
2,701 IQ
#11
^ Wow, first time I've ever seen someone use that on a forum. o.O
fragydig529
Tab Contributor
Join date: Mar 2006
1,073 IQ
#12
Give me your email if you dont have Guitar Pro and Ill email you a jpg of the tabs, both tracks, if you have guitar pro just let me know and Ill post the .gp5 file on here
buckethead_jr
Registered User
Join date: Jan 2006
6,792 IQ
#13
Quote by yawn
^ Wow, first time I've ever seen someone use that on a forum. o.O

i know, what's the need?