Poll: did u like this
Poll Options
View poll results: did u like this
yes
1 50%
no
1 50%
can't say
0 0%
Voters: 2.
sukdrit
Registered User
Join date: May 2007
21 IQ
#1
Name: Sukrit Gupta
E mail:sukdrit@gmail.com
sukritthesukhoy31@rediffmail.com


Following, is how the song opens:

C#m A
B A

This is played for quite sometime when the following comes in:

e---------------------------------------------------------------------------
b--------------------------------------7--8--8--8-------------------------
g------------------------4s6--6--9----------------------------------------
d---------------------------------------------------------------------------
a---------------------------------------------------------------------------
e---------------------------------------------------------------------------


e---------------------------------------------------------------------------
b--------------------------------------7--8--8--8-------------------------
g------------------------4s6--6--9----------------------------------------
d---------------------------------------------------------------------------
a---------------------------------------------------------------------------
e---------------------------------------------------------------------------


e---------------------------------------------------------------------------
b--------------------------------------7--8--8--8-------------------------
g------------------------4s6--6--9----------------------------------------
d---------------------------------------------------------------------------
a---------------------------------------------------------------------------
e---------------------------------------------------------------------------

e---------------------------------------------------------------------------
b---------------------------------------------------------------------------
g------------------------4s6--6--5----4—5--6--------------------------
d---------------------------------------------------------------------------
a---------------------------------------------------------------------------
e---------------------------------------------------------------------------

the rest of the song goes on like this, till the following solo comes in:

e---------------------------------------------------------------------------
b---------------------------------------------------------------------------
g------------------------4s6--6--5----4—5--6--------------------------
d---------------------------------------------------------------------------
a---------------------------------------------------------------------------
e---------------------------------------------------------------------------


e---------------------------------------------------------------------------
b---------------------------------------------------------------------------
g------------------------4s6--6--5----4—5--6--------------------------
d---------------------------------------------------------------------------
a---------------------------------------------------------------------------
e---------------------------------------------------------------------------


e---------------------------------------------------------------------------
b-----------7\-5-7\-------------------------7-8\-7-5-9-12-12-14-14--
g—5-5-6-----------6--5-6-5-6—5-5-6--------------------------------
a---------------------------------------------------------------------------
e---------------------------------------------------------------------------


e---------------------------------------------------------------------------
b—14\14\14\14\-12-9-7-5--5-7----5-7\--5-7----5-7\---------------
g--------------------------------—--6-------------6----------------------
d---------------------------------------------------------------------------
a---------------------------------------------------------------------------
e---------------------------------------------------------------------------


e-----------9-12-14-----9-12-9-12-9-12-9-12\------------------------
b---------------------------------------------------------------------------
g-------6------------------------------------------------------------------
d---------------------------------------------------------------------------
a---------------------------------------------------------------------------
e---------------------------------------------------------------------------


e-- 7-9-12-14\----12-14\----12-14-12-14-12-14--9-12-9-12-9-12
b--9--------------9--------------------------------------------------------
g---------------------------------------------------------------------------
d---------------------------------------------------------------------------
a---------------------------------------------------------------------------
e---------------------------------------------------------------------------


e-9-7-5--12-9-9-7-7---12-12-9\---9-9-7\-----5-----------------------
b------------------------------------------------------7-7-7---------------
g-------------------------------------------------------------5-6-5--------
d---------------------------------------------------------------------------
a---------------------------------------------------------------------------
e---------------------------------------------------------------------------

s=slide
\=tremolo (up)

The solo played at the end may have some minute errors, otherwise it sounds alright.
Do mail me ur suggestions.