#1
Which pedal is better?

the muff or the master?
Epiphone Les paul
bcrich Warlock platinum
Gibson Gss50 amp
Peavey special 212
Digitech RP80 effects pedal

first metal chubby
---------------------------
-----------5---------------
---------7-------------7---
------0--------6---5-------
#3
well whats better for like some Metallica and misfits sounds?
Epiphone Les paul
bcrich Warlock platinum
Gibson Gss50 amp
Peavey special 212
Digitech RP80 effects pedal

first metal chubby
---------------------------
-----------5---------------
---------7-------------7---
------0--------6---5-------
#4
I went through this dilema and ended up buying both because they both sounded great. If I had to pick one, wow, um, Metal Master ONLY because you can use the morph knob to select cabinet modeling and it definately sounds *Metal* try them both and pick the one YOU like...
#5
ok thanks. im just afraid at guitar center it will sound boss, then when i take it home on my amp itll sound like ****
Epiphone Les paul
bcrich Warlock platinum
Gibson Gss50 amp
Peavey special 212
Digitech RP80 effects pedal

first metal chubby
---------------------------
-----------5---------------
---------7-------------7---
------0--------6---5-------