#1
What and where does this riff come from?

e|------------------------------------|
B|------------------------------------|
G|-1--1--1--1-1--2--2--2-4-2--1--1--1-|
D|-2--2--2--2-2--3--3--3-5-3--2--2--2-|
A|-2--2--2--2-2--3--3--3-5-3--2--2--2-|
E|------------------------------------|


I am looking for other Spanish style guitar songs/riffs, could you please post links to tabs? thanks
#2
dont know about the riff
give 'double talking jive' by guns n' roses a listen
#5
Quote by Rory's_strat
The Spanish guitar part in Battery by Metallica?
Listen to that. Sounds spanishy to me.


link please
#6
just buy the album u n00b
Quote by Aqua Dementia
I like to play this game where I'll see how many times I can look at a particular chicks ass or tits until I get caught.


Quote by WNxScythe
Fat chicks are different. They don't count, they aren't women.


Digitech Whammy Club!
#7
It's not from Battery.
Guitars:
Ibanez SZ520QM, G4M Strat Style Guitar

Amps:
Laney VC30-212, G4M 15W Practise Amp

Pedals:
Boss BCB-60, CS-3, OD-3, DS-1, Jim Dunlop Crybaby Wah, Zoom 505 Mk.II

Keyboards:
Yamaha PSR-290
#8
Quote by Shredlet
just buy the album u n00b


It's ****ing 2:31 AM where I am, why don't you buy the album for me?
#9
I found this on another forum;
|-13p12p10--------------------------------------------------------------------------------------|
|----------13p11p10-9h10p9----9-------------------------------------------------------------|
|----------------------------10---10-9S7-7S9-10-9-7-10-9-7-10p9p7----------------------|
|-------------------------------------------------------------------------------10p9p7------------|
|-----------------------------------------------------------------------------------------8-10-7---|
|-----------------------------------------------------------------------------------------------------|
#10
coz ive already got battery! :P
Quote by Aqua Dementia
I like to play this game where I'll see how many times I can look at a particular chicks ass or tits until I get caught.


Quote by WNxScythe
Fat chicks are different. They don't count, they aren't women.


Digitech Whammy Club!
#11
Quote by Shredlet
coz ive already got battery! :P


Rip the song from the album or w/e and send it to me. Don't be such an ass ok I'm just looking for guitar riffs
#13
spanish music isnt really made by the notes alot of the time, but by the rhythm. But try maluguana (sp) thats a good spanish song...
#14
I just need some riffs and stuff I can learn from and create my own songs. I am trying to create a flamenco feel hard rock song/riff
#15
Quote by paulvxD
What and where does this riff come from?

e|------------------------------------|
B|------------------------------------|
G|-1--1--1--1-1--2--2--2-4-2--1--1--1-|
D|-2--2--2--2-2--3--3--3-5-3--2--2--2-|
A|-2--2--2--2-2--3--3--3-5-3--2--2--2-|
E|------------------------------------|


I am looking for other Spanish style guitar songs/riffs, could you please post links to tabs? thanks


Probably 'Espana Cani'. Am I right?
#16
The Doors has alot of spannish orientated guitar licks / phrases. Bobby Kreigers underrated IMO.
Squier Classic Vibe Custom
Vox Pathfinder 15R
Fender Jazz Bass
#17
Try Fernando Sor. Great classical guitarist, a personal favourite of mine is estudio V.
Quote by Vornik
Thanks for the advice. I'm going to put it, along with your other advice, into a book, the pages of which I will then use to wipe my ass.
#18
I'm sure that's just like a classic spanish riff, and not from one song in particular.
Quote by KileManA7X
You sir, are an honorary genius! Take this badge, you made us proud!
#19
use the spanish phrygian scale

----------------------
----------------------
----------------------
----------------5-7--
---------5-7-8------
-5-6-9--------------
ಠ_ಠ
<|>
/ω\



Tell me what nation on this earth, was not born of tragedy-Primordial
#20
jeeze why dont you go out and buy some decent flamenco??!!! Paco De Lucila and Paco Penne are good places to start.....
Frank Zappa's not dead. He just smells funny.