#2
I really dont have time right now, but if no one else tabs it and you'll remind me with a PM on tuesday, I can do it for ya
#3
-------------------------------------------
Wrong Side - Finn
-------------------------------------------

Tuning: Standard


e|----------------------------------------------------|
B|----------3-----------3----------3---------3------|
G|-------2----2-----2----2-----0---0----2----2---|
D|---0-----------------------------------------------|
A|----------------4-----------2---------0-----------|
E|----------------------------------------------------|

I think its that all the way through.....