#1
I'm trying to learn how to sweep, I need some tips on how to do it and if anyone has any exercises that would help
#2
I did the C major shape until i got good at it, then moved onto the like, barre chord kinda shape.
#3
These helped me:

                              T                       
      |---3---|   |---3---|   |---3---|   |---3---|   
      E   E   E   E   E   E   E   E   E   E   E   E   
------------------15--19--24--19--15--------------|
--------------17----------------------17----------|
----------16------------------------------16------|
------18--------------------------------------18--|
--19----------------------------------------------|
--------------------------------------------------|



|--19-15----------15-19-15-19-15----------15-19-15-|
|--------17----17----------------17----17----------|
|-----------16----------------------16-------------|
|--------------------------------------------------|
|--------------------------------------------------|
|--------------------------------------------------|



   S   S  S  S  S  S  S  S  S   S  S  S  S  S  S  S  
--17p-14----------------14-19p-15----------------15-|
---------15----------15-----------17----------17----|
------------14----14-----------------16----16-------|
---------------16-----------------------17----------|
----------------------------------------------------|
----------------------------------------------------|


   S   S  S  S  S  S  S  S  S   S  S  S  S  S  S  S  
--20p-17----------------17-22p-19-------------------|
---------19----------19-----------20----------------|
------------19----19-----------------19-------------|
---------------19-----------------------21-19-17-16-|
----------------------------------------------------|
----------------------------------------------------|


     
---------------10h-15p-10-----------------------
-----------12------------12---------------------
---------12------------------12-----------------
-------12------------------------12-------2-----
10h-14------------------------------14p-9-2-----
------------------------------------------------