#1
This is my first post in this section of ug, so bear with me. Anyway, here is a few riffs I came up with about 5 minutes ago, I want your opinions please. =)


e|---------------------------------------------------------------|
B|---------------------------------------------------------------|
G|---------------------------------------------------------------| use slight reverb on this staff
D|--5/7vvv--8p7--5/7vvv--8p7--5/7vvv--8p7------------l
A|---------------------------------------------------------------|
E|---------------------------------------------------------------|

e|---------------------------------------------------------------|
B|---------------------------------------------------------------|
G|---------------------7---------------------7-----------------|
D|-8-7-8-10-8-7-8----8-7-8-10-8-7-8--------------------| x2
A|---------------------------------------------------------------|
E|---------------------------------------------------------------|

e|---------------------------------------------------------------|
B|---------------------------------------------------------------|
G|-------------------------------------------[7]-----------------|
D|-5/7-8p7-5/7v--5v---------------------------2------------|
A|-------------------------8v-7-5vvv-0----------2------------|
E|--------------------------------------------------0------------|

palm mute all of the second staff except the the D on the g string.
use heavy distortion. have fun
It all makes sense
We're capable of beauty
Through sounds that make on cringe
The dogs only hear us now