#1
i heard this song on the radio twice but the band and track name elude me. See if you can help me out. The main riff sounds something like this but its wrong.

E||---0----0--------------|--0----0--------------|--0----0--------------|
B||---0----0--------------|--0----0--------------|--0----0--------------|
G||*--1----1--------------|--1----1--------------|--1----1--------------|
D||*--2----2--------------|--2----2--------------|--2----2--------------|
A||---2----2--------------|--2----2--------------|--2----2--------------|
E||---0----0--------------|--0----0--------------|--0----0--------------|


  E  E  Q    E  E  Q                
-------------------------||-------||
--3--2-------3--2--------||-------||
--------2----------2----*||-------||
------------------------*||-------||
-------------------------||-------||
--5----------5-----------||-------||
Quote by WantToLearn
what is poon?
#2
try explaining it a bit more...was it clean? distorted? calm? hard? fast? slow?

and...idk, but for some reason the second part reminds me of a coldplay song but i don't know the name of it.
Originally Posted by evening_crow
Quoting yourself is cool.


WARNING: I kill threads.
#3
Its not cold play. Its light distortion playing like white stripes-like rock. And play it at like 180 bps if that helps...
Quote by WantToLearn
what is poon?
Last edited by bobbywheels at Jun 19, 2007,
#6
the last bit sounds like Josh Groban - Time to say goodbye. but that is a opera song, and wouldnt be on the radio..
Quote by Machanix
We play guitar.... we're automatically on top of the world.

Life Is A Lemon And I Want My Money Back!

A Wasted Youth
Is Better By Far
Than A Wise And Productive Old Age

Good Girls Go To Heaven, But The Bad Girls Go Everywhere!
#7
Quote by bobbywheels
Its not cold play. Its light distortion playing like white stripes-like rock. And play it at like 180 bps if that helps...


BPS... beats per second?!?!??!?