#1
and i need someone to tab this song (click on the link)
Last edited by ldnovelo2 at Jun 22, 2007,
#2
youre an idiot.
Quote by nt1440
thats true, i hate kids who go "oh noess limewire is soo bad, viruses everywhere crashed my computer, had to buy a new one" well mayb thatll teach u that the a song isnt 112 kb and named cute_teen_has_orgasm_on_webcam_xxx
#3
Intro:
e|---------------------12--------|------------10-12-9---
b|---12--12-14-15-----15-14|-11p911---------------
g|-----------------------------14| |This pull off bit dosen't sound quite right but I'm not gonna spen all day on it so..

e|---------------------12--------|------------10-12-14--
b|---12--12-14-15-----15-14|-11p911---------------
g|-----------------------------14|--------------------------

Main bit------
e|------------14-----------------------------------------------------------
b|--17p-15-----17p15-17-15-14-15-15 14-15p14-----------------
g|-----------------------------------------------------------14s-16-------
d|--------------------------------------------------------------------------


riffage

e------------------|-----------------------|
b------------------|-----------------------|
g------------------|-7-9---7--4----------|
d--9-9-9-9-9-9-|-7-9---7--4----------|
a--9-9-9-9-9-9-|-5-7---5--2----------|
e--7-7-7-7-7-7-|-----------------------|
That a bit of it, I'm lazy to really give it a go, but pm me and I'll probably do the rest some time
#5
No, I'm sick of submitting accurate tabs that get rejected for no explanation.
#6
nah mate, submit it aye. iv been lookin for it evryware but i cant find a good 1. btw, on youtube some guy does it really well, a couple of stuff ups but still. sum1 should tab him