Page 1 of 2
#1
ok so just tab your favorite riff and the amp / pedal settings

mine is :

e-0-----0----0------
a---2-3--2-3-2-3--
d---------------------
g--------------------
b--------------------
e--------------------

sounds lame if u dont have the ultra metal stomp box thingie set like

dist - 5
high - 10
low - 0
mid 0
mid frq - 10
level - 5
#2
your tab is upside down mate
Quote by closertofreewil
I officially hate you SBLAKELELY.



PSN ID: blakerz92
add me
#3
e-------------------------------------------------------------------------------------
B-------------------------------------------------------------------------------------
G-------------------------------------------------------------------------------------
D-------------------------------------------------------------------------------------
A-------------------------------------------------------------------------------------
E-0~~~~~~~~~~~~~~~~~~~~~~~~~~~~~~~~~~~~~--------

Sunn O))) - My Wall.

It has returned.
Quote by justinb904
im more of a social godzilla than chameleon

Quote by MetalMessiah665
Alright, I'll give them a try, Japanese Black Speed rarely disappoints.

Quote by azzemojo
Hmm judging from your pic you'd fit in more with a fat busted tribute.
#4
E|3461345761571457145724782
B|6567824682468256815745714
G|1572467245714571457145714
D|4783568567134571457145714
A|1346134645724572472467223
E|1213232312313131353563452

but its a bit tough >_>
#5
Quote by soulgazer
E|3461345761571457145724782
B|6567824682468256815745714
G|1572467245714571457145714
D|4783568567134571457145714
A|1346134645724572472467223
E|1213232312313131353563452

but its a bit tough >_>


Dude, everyone can play that Greenday riff.
#6
e----------------------------------------------------
b----------------------------------------------------
g--0--3--5----0--3--6--5----0--3--5--3--0-----
d--0--3--5----0--3--6--5----0--3--5--3--0-----
a----------------------------------------------------
e----------------------------------------------------

I made it up yesterday, tell me what you think!
#7
Quote by Zox
e----------------------------------------------------
b----------------------------------------------------
g--0--3--5----0--3--6--5----0--3--5--3--0-----
d--0--3--5----0--3--6--5----0--3--5--3--0-----
a----------------------------------------------------
e----------------------------------------------------

I made it up yesterday, tell me what you think!



zomgg!!!!1oneone you 4r3 t3h 1337!!!
#8
Quote by Zox
e----------------------------------------------------
b----------------------------------------------------
g--0--3--5----0--3--6--5----0--3--5--3--0-----
d--0--3--5----0--3--6--5----0--3--5--3--0-----
a----------------------------------------------------
e----------------------------------------------------

I made it up yesterday, tell me what you think!



crap. definitely wont become one of the worlds most popular riffs.
UG's Official Stuffed Toy! Because I am so cuddly wuddly


I LOVE KENSAI
#9
everyone knows that when you have nothing to play on the guitar with your friends, you must resort to playing that riff....
...And The Nominees Are
#10
e----------------------------------------------------
b----------------------------------------------------
g------------------------2---------------------------
d------5-----7------5--2--------------------------
a--0--3--0--5--0--3--0-----------------------------
e----------------------------------------------------
There ain't no moral to this story at all. Anything I tell you very well could be a lie.
#11
Quote by Zox
e----------------------------------------------------
b----------------------------------------------------
g--0--3--5----0--3--6--5----0--3--5--3--0-----
d--0--3--5----0--3--6--5----0--3--5--3--0-----
a----------------------------------------------------
e----------------------------------------------------

I made it up yesterday, tell me what you think!


Sorry, you're too late, I made it up 2 weeks ago.
#12
e|--------------------------------------------------------------------
B|--------------------------------------------------------------------
G|--------------------------------------------------------------------
D|--------------------------------------------------------------------
A|-7-5--7-------5----5------------------------------------------------
E|----------7----7-------5---3--5-----0---3-0-3--0---5-3-5----3--7-5--7


It's Maria-RATM

I'd tab something else but I'm lazy and that was the easiest riff I like to tab
What have we learned.....

Words are weightless here on earth,
because they're free


.....from this wee exercise?
#13
Quote by ebbbaaa
e----------------------------------------------------
b----------------------------------------------------
g------------------------2---------------------------
d------5-----7------5--2--------------------------
a--0--3--0--5--0--3--0-----------------------------
e----------------------------------------------------

That's a whole lotta riffing.

Mine, at the moment:

e|---------------------------------------------|
C|---------------------------------------------|
G|---------------------------------------------|
C|---------------------------------------------|
G|------2-------2-------2---3-3-3-3-5-5-3-3----|
C|-0-00---0--00---0--00---0--------------------|
#14
g|----4----------------|
d|------4-----------0-|
a|-2------2---0-2----|
E|-----------2---------|

7/4 time with swung quavers. Nice. My favourite bass riff
Quote by Dæmönika
Quote by italynlprkn
yo tambien
What the hell's a tambien?
Quote by Oblivion_Rps
its like basic math. 1 + -1 = 1
Last edited by wannabe jesus at Jun 24, 2007,
#15
Led Zeppelin - Black Dog

       NH   (Palm mute)
A---69-------x-1337------
D----8978569789576859----
C------5-7-575--5-------2
Q--567--7---14-14-577---2
F-7---7-x-----2b16---57-0
Z---------2h3-2h14-----8-
X------5/16-75--5-------2
W--911--7-----77-7577---2
N-7---7----3.14159---57-0
*-----------24b29------8-
R----27-x-x-x---------0--


But in all seriousness, it's New Order - Ceremony

Riff 1

E----------------------------
B----------------------------
G----------------------------
D--------10--9--------------
A-----------------10vvv-----
E----8-----------------------

or Joy Division - New Dawn Fades

Riff 2

E----------------------------------
B----------------------------------
G----------------------------------
D----------------------------------
A-----------------------------------
E-0--0-2v--0--0--2--0-2-------

E-----------------------------------
B-----------------------------------
G-----------------------------------
D----------------------------------
A-7--7-9v--7--7--9--7-9-------
E-----------------------------------
#16
Wow, some really bog standard riffs. Although the Sunn one was like totally awesome...I have one of their albums..Incredible

Anyway, came up with this a couple of days ago :

       
                                                                            
E]--------------------------------------------10----10h12p10----------------|
B]-------------------------------------/10-12----12----------12~-12-12-10-10|
G]--------7-----------------------------------------------------------------|
D]----------9~-7h9p7----7-7h9-----------------------------------------------|
A]-/7-9-10-----------10-------7-\5------------------------------------------|
E]---------------------------------3-0--------------------------------------|
#17

|----------------------------------------|
|----------------------------------------|
|-------------------------------[4]------|
|-2-----------2-1-2-[3]-2-3-----2-3-|
|-0-0-0-0-0----------------------------|
|----------------------------------------|


:
Quote by malachifivebass
you cant make a male musician choose music or sex, its like asking a fat man twinkie or brownie


Quote by iamnotrabid
Quote by metdethslaythrx
Naomi
it's "I moan" backwards
No, it's I maon.

Phail

I WILL one day rule the world, Pm me with the position you want and Ill see if it is open.
Last edited by avenged_7_fold at Jun 24, 2007,
#18
|----------------------------------------------------------------|
|----------------------------------------------------------------|
|----------------------------------------------------------------|
|----------------------------------------------------------------|
|-----------------------------------------------------2---1------|
|-0-2-2-2-3-2-2-2-0-2-2-2-2-2-3-2-3-2-2-2-0-2-2-2-2-3---2----3-0-|


|-----------------------------------------------------------------|
|-----------------------------------------------------------------|
|-----------------------------------------------------------------|
|-----------------------------------------------------------------|
|-------------------------------------2---1----------------1------|
|-0-2-2-2-3-2-2-2-0-2-2-2-2-2-2-0-2-3---2----2-0-2-3-2-0-3---3-0--|

#19
e|------------------------------------------------------------------------
B|------------------------------------------------------------------------
G|-----------------4-3~~~------0-----------------------4-6~~~----0-3------
D|---------------------------2---------------------------------2-----2----
A|-2-4-5-2---2-4-5-2-1~~~1-4-----4-----2-4-5-2---2-4-5-2-4~~~4---------1--
E|-0-2-3-0---0-2-3-----------------3~~-0-2-3-0---0-2-3--------------------


Fatal Tragedy by Dream Theater, it just sounds so awesome
Check out my guitar quartet composition The Lone Wolf and you will be rewarded! With a live wolf!

Are you a PROG-HEAD? I am.

Quote by Led Pepplin
I'm adding you to my list of most hated UGers.

#20
Quote by con job
e|--------------------------------------------------------------------
B|--------------------------------------------------------------------
G|--------------------------------------------------------------------
D|--------------------------------------------------------------------
A|-7-5--7-------5----5------------------------------------------------
E|----------7----7-------5---3--5-----0---3-0-3--0---5-3-5----3--7-5--7


It's Maria-RATM

I'd tab something else but I'm lazy and that was the easiest riff I like to tab


Ooo yeah. That's a quality riff.
Quote by neidnarb11890
the chinese take-out place my family always ordered from gave you chopsticks, so as a kid it was fun to try & eat with chopsticks
now i just use a fork, 'cuz nothing is fun anymore & i just want to shovel food into my mouth to fill the void
#22
at the moment, its heartbreaker- led zepp

e|--------------------------------------------------------------------
B|--------------------------------------------------------------------
G|--------------------------------------------------------------------
D|-------------------0--1-2-----------------------0----1-2-------------
A|-------------0---3----------------0-0-0-0-3--------------------------
E|--3b~~~~-----------------3b~~--------------------------3b~~--
Member #10 of the Trumpet Players' Alliance

#23
Has one person here bothered to give us the length of each note so that we can play these riffs without having to know the song?
#24
Quote by 666metalmark
Dude, everyone can play that Greenday riff.



Green Day aren't even almost that musically complex and talented.


Anyway, on topic, Ophelia by Gotham Road. I don't know why, I just can't stop playing it in the middle of jam sessions.

A-9-9-10-9-12-12-10-9--5-7-5-9-5-7-5
E-9-9- 9-- 9- 9- 9- 9 -9--5-5-5-5-5-5-5

I don't know if it's right. I tabbed it myself.
That Cheap Fucking Smile Carries You To Bed

Those Lips Are Social Suicide But I Just Wanna See You Dead.
Last edited by dethskar0 at Jun 24, 2007,
#25
Quote by Malakian88
Has one person here bothered to give us the length of each note so that we can play these riffs without having to know the song?


Tab doesn't have note values. Look at this and you'll see why (I've used the money tab again because I know the values);

---x|-----|\-------------------------------|
-7-g|----4 |-----------------------|-----|
---d|--|----4--|`--(7)-------|--|--0-----|
-4-a|-2------2----------|--0--2---------|
---E|-------------------2-----------------|

The (7) was the closest thing on the keyboard I could get to a quaver rest and that just looks ridiculous.
Quote by Dæmönika
Quote by italynlprkn
yo tambien
What the hell's a tambien?
Quote by Oblivion_Rps
its like basic math. 1 + -1 = 1
#26
Quote by wannabe jesus
Tab doesn't have note values. Look at this and you'll see why (I've used the money tab again because I know the values);

---x|-----|\-------------------------------|
-7-g|----4 |-----------------------|-----|
---d|--|----4--|`--(7)-------|--|--0-----|
-4-a|-2------2----------|--0--2---------|
---E|-------------------2-----------------|

The (7) was the closest thing on the keyboard I could get to a quaver rest and that just looks ridiculous.


Which is why you put letters above the tab. Most commonly used is w for whole, h for half, e for eighth, and s for sixteenth.
#27
e|-----------------------------------------------------|
B|-----------------------------------------------------|
G|-----------------------------------------------------|
D|-----------------------------------------------------|
A|------------3-2--2----3-2--2------------3-2--2--|
E|--1-3-1---1-0--0----1-0--0----1-3-1-1-0--0--|


palm mute where appropriate
#28

e|---------5-7------8------8-2------2-0-------0--------------|
B|-------5------5------5---------3-------1---1---1-----------|
G|-----5----------5------5---------2-------2-------2----0--2-2-|
D|---7-------6-----5----------4-------------------------------|
A|----------------------------------------------------------2--0-0-|
E|---------------------------------------------------------|



This is my new piece i made it myslef i swear
^This post was probably sarcastic

GO LEAFS GO

Chief Executive Officer of Music Games of THE ULTIMATE-GUITAR GAMING FORCE
#29
gotta say sir duke

G| - - - - - - - - - - - 1 - - - - | - - - - - - - - 4 - 6 7 8 - - - |
D| - - - - - - - 1 - - - - 4 - - - | - - - - - - 4 6 - - - - - - - - |
A| 2 - - - - - 2 - 4 - 4 - - - - - | 2 - 4 5 6 - - - - - - - - - - - |
E| - - - - - - - - - - - - - - 2 4 | - - - - - - - - - - - - - - - - |

G|13 - - -11 - - - - - - - - - - - - - | - - - - - - - - - - - - - - |
D| - - -13 - -11 -13 - -11 - 9 - - - - |11 - 9 - - 9 - - - - - - - - |
A| - - - - - - - - - - - - - - -11 - 9 | - - - -11 - - - - - - - - - |
E| - - - - - - - - - - - - - - - - - - | - - - - - - - - - - - - - - |

I'm a Fire, and I'll Burn.Burn.Burn.
#30
Quote by Malakian88
Which is why you put letters above the tab. Most commonly used is w for whole, h for half, e for eighth, and s for sixteenth.


That would work but most people listen to the song so really the tabber isn't going to bother.

If you're going to add note values I think you should just go all the way and write it onto sheet music.
Quote by Dæmönika
Quote by italynlprkn
yo tambien
What the hell's a tambien?
Quote by Oblivion_Rps
its like basic math. 1 + -1 = 1
Last edited by wannabe jesus at Jun 24, 2007,
#31
e||----------------------------------------------------------||
B||----------------------------------------------------------||
G||-----------5--5--5---4--4--4------2---2--2----------||
D||--4-4-----5--5--5---4--4--4-0---2---2--2----------||
A||--4-4--0--3--3--3---2--2-2--0---0--0---0----------||
E||--2-2--0------------------------------------------------||

Dont know why it came out all crooked.
#32
e|---------------------------------|
b|---------------------------------|
g|---------------------------------|
d|-------3------4--------5-------|
a|-------3------4--------5-5-4--|
d|-0-0----0-0------0-0---5-4--|
, ladies.
#33
Quote by unholy_love

Dont know why it came out all crooked.

Because the font used doesn't have a uniform character size.
#34
Quote by unholy_love
e||----------------------------------------------------------||
B||----------------------------------------------------------||
G||-----------5--5--5---4--4--4------2---2--2----------||
D||--4-4-----5--5--5---4--4--4-0---2---2--2----------||
A||--4-4--0--3--3--3---2--2-2--0---0--0---0----------||
E||--2-2--0------------------------------------------------||

Dont know why it came out all crooked.



put it in
 and 
, won't come out like that, but don't put the spaces before the CODE
I'm a Fire, and I'll Burn.Burn.Burn.
#35
Copache, by the Melvins.



----------------------
----------------------
----------------------
----------------------
-4---0-2-3-2-0--------
---2--------------2---



EDIT:

Quote by unholy_love
e||----------------------------------------------------------||
B||----------------------------------------------------------||
G||-----------5--5--5---4--4--4------2---2--2----------||
D||--4-4-----5--5--5---4--4--4-0---2---2--2----------||
A||--4-4--0--3--3--3---2--2-2--0---0--0---0----------||
E||--2-2--0------------------------------------------------||

Dont know why it came out all crooked.


is that aneurysm?
Quote by ACG

In conclusion, I'm gay.


Mud Sergeant of the Primus Sucks Club. PM StratEnRegalia to join.

"Member of the Frank Zappa Fan Club. PM deadhead313313 to join."
Last edited by Lacquer_Head at Jun 24, 2007,
#36
A portion of the demonstration by Jani Liimatainen (sp?) of Young Guitar.

(Do note, sometimes i think he throws in an extra strike, instead of an eighth to a sixteenth after the chords when he plays the root note. Or something).


       NH   NH   NH   NH               
       E    E    E    E   E  E  E  E   
E||-----------------------------------|
B||-------<>7-------------------------|
G||--<>5-------<>7--------------------|
D||-----------------<>7~--L--L--L--L--|
A||-----------------------------------|
E||-----------------------------------|


   Q    E   Q    E  Q     
-------------------------|
-------------------------|
--12-------11----L--7----|
---9--------9----L--9----|
---7----7---7----L--7----|
-------------------------|


   Q    E   Q    E   Q     
--------------------------|
--------------------------|
--------------------------|
--12-------10----L--12----|
--10-------10----L--10----|
---8----8---8----L---8----|


   Q    E  Q    E   Q     
-------------------------|
-------------------------|
--11-------9----L--11----|
---0----0--0----L---0----|
-------------------------|
-------------------------|


  Q    E  Q    E  Q     
-----------------------|
-----------------------|
--6-------7----L--6----|
--7-------7----L--7----|
--0----0--0----L--0----|
-----------------------|


   Q    E   Q    E  Q     
-------------------------|
-------------------------|
--12-------11----L--7----|
---9--------9----L--9----|
---7----7---7----L--7----|
-------------------------|


   Q    E   Q    E   Q     
--------------------------|
--------------------------|
--------------------------|
--12-------10----L---9----|
--10-------10----L--10----|
---8----8---8----L---8----|


  Q    E  Q    E  Q     
-----------------------|
-----------------------|
-----------------------|
--7-------7----L--7----|
--5----5--5----L--5----|
-----------------------|


  E  E  E  Q    E  Q     
------------------------|
------------------------|
------------------------|
------------------------|
-----------5----L--5----|
--5--7--0--3----L--2----|


   Q    E   Q    E  Q     
-------------------------|
-------------------------|
--12-------11----L--7----|
---9--------9----L--9----|
---7----7---7----L--7----|
-------------------------|


   Q    E   Q    E   Q     
--------------------------|
--------------------------|
--------------------------|
--12-------10----L--12----|
--10-------10----L--10----|
---8----8---8----L---8----|


   Q    E   Q    E   Q     
--------------------------|
--------------------------|
--11-------12----L--11----|
---0----0---0----L---0----|
--------------------------|
--------------------------|


  Q    E  Q    E  Q     
-----------------------|
-----------------------|
--6-------7----L--6----|
--7-------7----L--7----|
--0----0--0----L--0----|
-----------------------|


   Q    E   Q    E  Q     
-------------------------|
-------------------------|
--12-------11----L--7----|
---9--------9----L--9----|
---7----7---7----L--7----|
-------------------------|


   Q    E   Q    E   Q     
--------------------------|
--------------------------|
--------------------------|
--12-------10----L---9----|
--10-------10----L--10----|
---8----8---8----L---8----|


  Q    E  Q    E  Q     
-----------------------|
-----------------------|
-----------------------|
--7-------7----L--7----|
--5----5--5----L--5----|
-----------------------|


  E  E  E  Q    E  Q     
------------------------|
------------------------|
------------------------|
------------------------|
-----------5----L--5----|
--5--7--0--3----L--2----|


  E  E  E  E  E  E  E  E   
--------------------------|
--------------------------|
--------------------------|
--2--2--2--2-----2--2--2--|
--2--2--2--2-----2--2--2--|
--0--0--0--0-----0--0--0--|


  E  E  E  E  E  E  E  E   
--------------------------|
--------------------------|
--------------------------|
-----2--2--2--2-----------|
-----2--2--2--2-----------|
-----0--0--0--0-----------|


  E  E  E  E  E  E  E  E   
--------------------------|
--------------------------|
--------------------------|
--------------------------|
--7--6--5--0-----3--2--1--|
--------------------------|


  E  E  E  E  E  E  E  E    
--------------------------||
--------------------------||
--------------------------||
--------------------------||
--------------------------||
-----5--4--3--------------|| 
Last edited by Aus-10 at Jun 24, 2007,
#37
1:13
e|-----------8-------------8-------------------8-------------5-5----|
B|-5p0-5p0---5p0-5p0---5p0-5-0-6-0-5-0-5---0-5-0-6-0-0-----5p0|
G|-------------------------------------------------------- ---|--|
D|------------------------------------------------------------| |
A|------------------------------------------------------------| |
E|------------------------------------------------------------| |
^Pick every note PM |
e|------------8------------8-------------------8-------------5-5----| |
B|-5p0-5p0---5p0-5p0---5p0-5-0-6-0-5-0-5---0-5-0-6-0-0-----5p0| |
G|-------------------------------------------------------- ---|--|
D|------------------------------------------------------------|
A|------------------------------------------------------------|
E|------------------------------------------------------------|
#38

D|------------------------------------|
A|------------------------------------|
F|------------------------------------|
C|------------------------------------|
G|------------------------------------|
D|-0--0-1b-0--0-1b-0--0-1b-0--0-1b-0--|
Walk - Pantera

D|-----------------------------|
A|-----------------------------|
F|-----------------------------|
C|-----7---------6----5--------|
G|---5---5-----4---4----3---3--|
D|-3---------2------------1----|
part of Bite the Pain - Death
"We are not concerned with motive, with higher ethics. We are concerned only with cutting down crime-."
#39
Quote by Malakian88
Has one person here bothered to give us the length of each note so that we can play these riffs without having to know the song?


or a tempo.
Gibson 67 V. 91 Jackson Rhoads. 95 LTD M100 w/ EMG81s. Ep LP custom w. EMGs. Marshall AVT50 and AVT150H w/ 2 4x12 cabs.
#40
drop d tuning on 6th string

D|--2-2-2-2-5-2-5-6-7-7-7-7-10-7-10-11-12-0-0-12-0-0-3-4-5-5-5-5-9-9-9-9

relatively simple riff, yet so effective in the song, which i'll leave for someone else to figure out
Page 1 of 2