#4
Actually that's a different song. The one I was curious about is by Cinder Road. But thanks!
Last edited by ras2007 at Jun 24, 2007,
#5
i guess that its something like this

E E E E Q E E E E Q E E E E
|----13----13-11-----13-|----13-11-------------|
|-11----11--------11----|-11--------14-13-11-9-|
|-----------------------|----------------------|
|-----------------------|----------------------|
|-----------------------|----------------------|
|-----------------------|----------------------|


E E E E Q E E E E Q E E E E E
|----13----13-11-----13-|----13-11-------------|----|
|-11----11--------11----|-11--------14-13-11-9-|-11-|
|-----------------------|----------------------|----|
|-----------------------|----------------------|----|
|-----------------------|----------------------|----|
|-----------------------|----------------------|----|


just paste this tab in a text file hope you like it