#1
ok, the first is the chorus, please tell me if its right or wrong:

Chorus

E||----------------------|----------------------|----------------------|
B||----------------------|----------------------|----------------------|
G||--4----4----9b-----|------------9b-------|--6----6----9b--------|
D||--4----4-------------|--5----5------------|--7----7--------------|
A||--2----2------------ |--5----5-------------|--7----7--------------|
E||--2----2-------------|--3----3-------------|--5----5--------------|


--------------------------|----------------------|----------------------|
--------------------------|----------------------|----------------------|
--6--6--6----6----6----|--9br~-------------|--4----4----9b--------|
--7--7--7----7----7----|----------------------|--4----4--------------|
--7--7--7----7----7----|----------------------|--2----2--------------|
--5--5--5----5----5----|----------------------|--2----2--------------|


------------------------|-----------------------|-----------------------|
------------------------|-----------------------|-----------------------|
------------9b--------|--6----6----9b-------|-----------------------|
--5----5--------------|--7----7--------------|--9--9--9----7----7----|
--5----5--------------|--7----7--------------|--9--9--9----7----7----|
--3----3--------------|--5----5--------------|--7--7--7----5----5----|


--------------------------------------|---------|------------||
--------------------------------------|---------|------------||
--------------------------------------|---------|------------||
--2--2--2--2--2--2--4--4--4--4--|--4--4--|------------||
--2--2--2--2--2--2--4--4--4--4--|--4--4--|------------||
--0--0--0--0--0--0--2--2--2--2--|--2--2--|------------||

The second is the second chorus....

I dont have a clue about the chords used in that... please help me out...

I am attaching both of them...

http://www.geocities.com/ohsoinsane/Chorus1.mp3
http://www.geocities.com/ohsoinsane/Chorus2.mp3
#2
It'd be nice if the site was available...
Quote by yawn
My work here is done.

Destroying the lives of innocent people, one post at a time.


Member of the 'Muse > any other band' club
#4
forgot to tell you guys, I can play the lead part, just need help with the chords... thanks
#7
no one has 5 minutes to look over 1 minute long piece with simple chords and just type em out? come on you pros, you can do better!