#1
another scale i think it is blues i do not understand the structuring of it . it is


e----------------------------------------------5
b--------------------------------------5--8----
g---------------------------5--7--8-----------
d--------------------5--7----------------------
a---------5--6--7-----------------------------
e--5--8----------------------------------------


so its a c d ed e g

a would be the key right?
then 2 notes, 1note, 1/2note / 1/2 note, then 2 note correct?
what kind of scale is this? or whatever lol
somebody please give me some insight to why this is this lol
#2
yeah blues scale in a
Quote by screamingfool34
people here are idiot.
Quote by Mr_H_MASTER
the only good wahs out there are Slashs, Zacks, and Dimebags.
Quote by evan1234567
im to tired and confused to comprehend what you said.
#3
yea its the A blues scale. it's basically the A minor pentatonic, but with the added flat 5th, which in the A scale is Eb. adding that flat 5th is what makes it the blues scale.
This is my signature. There are many like it but this one is MINE.
#4
so not to sound like an idiot but what would be the petetonic scale of a in notes? like the structure and everything please
#5
A minor pent: A C D E G

Minor pent formula: 1 b3 4 5 b7

For future assistance, it would help if you would capitalize the music notes.
DANNY

Quote by kevinm4435 to some guy
hey d00d i herd u dont like shred u r a genius 4 thinkin dat. all shred is fukin lame wit no soul u no wat im sayin??
#6
don't worry your not an idiot, just new with the theory
pentatonic
e----------------------------------------------5---(8)
b--------------------------------------5--8-----------
g--------------------------5--7-----------------------
d-------------------5--7------------------------------
a---------5--7----------------------------------------
e--5--8-----------------------------------------------

A - C - D - E - G - A - C - D - E - G - A - C
-------------------------------------------------

^ two octaves. example - on a bass, you just play the first octave. It all makes sense in the end.
Quote by screamingfool34
people here are idiot.
Quote by Mr_H_MASTER
the only good wahs out there are Slashs, Zacks, and Dimebags.
Quote by evan1234567
im to tired and confused to comprehend what you said.
#7
pentatonic means a scale with 5 notes. I find it relatively hard to solo with because it provides less notes for creativity, but some people just like to yell at me for being insuperior for not seeing the AWESOME POWER of the pentatonic.