#1
e|-----3---1-0----------3--|
B|---------------1------1--|
G|----0--0-----0------0----| X 2
D|-------------------------|
A|--3----------------------|
E|------------------1------|

I am a complete newbie, do I strum all of the strings after A|--3? And so forth? Thanks.

Song is Vulnerable by Secondhand Serenade.
#2
e|-----3---1-0----------3--|
B|---------------1------1--|
G|----0--0-----0------0----| X 2
D|-------------------------|
A|--3----------------------|
E|------------------1------|


Looks like fingerpicking to me.
#5
yes, you'll have to pick them, but the passage looks like its easier to finger pick rather than using a plectrum.
#8
If you tell us what song it is, well be able to identify it more easily coz the tab is slightly messed up coz of how it comes out pasted
#10
Quote by bluewilliams
0 just means play the string open, ie without fretting a note on it.

okay thank you so much.
#11
e|-0-3-1-0--0-3-1-0--|
B|-1-1-1-1--1-1-1-1--|
G|-0-0-0-0--0-0-0-0--|
D|-2-2-2-2--2-2-2-2--|
A|-3-3-3-3--0-0-0-0--|
E|-------------------|


playing the first tab at once, if there is nothing on E, i dont strum it ever?