#1
Hey this is a game. You guess what song the tab of the user above you has posted, then you post a short tab from a famous riff or lick.

Rules - NO SPAM! Only post to say what you think the tab was, or to confirm that someone is right. Make the tabs short, famous riffs that aren't too hard to guess. It would also be good if you could say who's tab you are guessing at (to avoid confusion), i.e. - "to Miracle_Man, your tab is ...."

I'll start

this is an easy one ...

A ----------------------------|-----------4---5---4---2----------2---------
E ----------------------------|-----2--2---2---2---2---5--4--5---5--4--0

have fun!
What's the difference between a chickpea and a lentil?
I've never paid to have a lentil on my face!
#2
crazy train, cmon.
My Gear:
Gibson Faded Flying V
"Dante's Inferno" Iceman
Fender Hot Rod Deluxe 112
etc.




Quote by freedoms_stain
I can't imagine anything worse than shagging to Mark Knopfler.

Maybe shagging Mark Knopfler, but that's about it.
#4
TS- i have no idea

mine wins for the EASIEST RIFF EVER

A-2-5-7--2-5-87--2-5-7--5-2
E-0-3-5--0-3-65--0-3-5--3-0

(i feel sorry for anybody who cant get this)
#5
*****n hell guys post a tab too
What's the difference between a chickpea and a lentil?
I've never paid to have a lentil on my face!
#7
Dont post without a tab
What's the difference between a chickpea and a lentil?
I've never paid to have a lentil on my face!
#8

E-------------------11--12
B------9-------12----------
G----------11--------------
D---9---9------------------
A 7-------------------------
E --------------------------


mine the hardest sof ar?
<Raven> I got so baked last night
<Raven> that I WOKE UP high o_o
<Raven> Do you have any idea how euphoric that is?
<Raven> I felt like I was being born.
#9
Quote by samick007
TS- i have no idea

mine wins for the EASIEST RIFF EVER

A-2-5-7--2-5-87--2-5-7--5-2
E-0-3-5--0-3-65--0-3-5--3-0

(i feel sorry for anybody who cant get this)

smoke on the water i think


D ------3/2--------7-6-5-3
A 5-5-------3-5-------------

Jack my swag
#10
Quote by gopherthegreat
smoke on the water i think


D ------3/2--------7-6-5-3
A 5-5-------3-5-------------

inna gadadavida or w/e haha
h/o i got one more in a sec

E-------------------------
B-------------------------
G-5----5--5---(3)------
D-5----5--5-------5-3-5
A-----------------5-3-5
E---3-3--3--3-----------
<Raven> I got so baked last night
<Raven> that I WOKE UP high o_o
<Raven> Do you have any idea how euphoric that is?
<Raven> I felt like I was being born.
Last edited by C.C. Deville at Jul 6, 2007,
#11
Quote by C.C. Deville

E-------------------11--12
B------9-------12----------
G----------11--------------
D---9---9------------------
A 7-------------------------
E --------------------------


mine the hardest sof ar?


Hahahah

Somthing alrgiht? I heard jerryc play it

EDIT: "Im alright?"
Quote by Meths

Obviously I'm biased towards the correct point of view. What kind of retard isn't?


#12
Quote by preludetowar
Hahahah

Somthing alrgiht? I heard jerryc play it

EDIT: "Im alright?"

yeah im alright cept it was originally by neil zaza
<Raven> I got so baked last night
<Raven> that I WOKE UP high o_o
<Raven> Do you have any idea how euphoric that is?
<Raven> I felt like I was being born.
#13

E|------------------------------------------------------
B|------------------------------------------------------
G|---------------------------------------5---5---5--7-5-
D|---------------------------------------5---5---5--7-5-
A|-----0----------2-0--2------0------7777---7---7-------
E|-0-3--3-0--0-0-3--------0-3--3-0----------------------

Guess away
#14
e:-------------------------------------------------------------------|
B:3-----------3--------------2--------------------------------------2|
G:------2--------2-----------------------3---------------------------|
D:---4-----4--------4-2------------4--------4--4-2------------4------|
A:5---------------------5-4-----4-----4-------------5-2--4/5-----5---|
E:---------------------------2---------------------------------------|
this is a simple one
Quote by Td_Nights
*Points to Above Poster*

Best. Username. Ever.

Quote by _-Joey-_
I wish I was gay...


PSN- td_rules Steam- tdrules
#15
Quote by tdrules
e:-------------------------------------------------------------------|
B:3-----------3--------------2--------------------------------------2|
G:------2--------2-----------------------3---------------------------|
D:---4-----4--------4-2------------4--------4--4-2------------4------|
A:5---------------------5-4-----4-----4-------------5-2--4/5-----5---|
E:---------------------------2---------------------------------------|
this is a simple one

under the bridge someone guess mine!!!
<Raven> I got so baked last night
<Raven> that I WOKE UP high o_o
<Raven> Do you have any idea how euphoric that is?
<Raven> I felt like I was being born.
#16
Quote by tdrules
e:-------------------------------------------------------------------|
B:3-----------3--------------2--------------------------------------2|
G:------2--------2-----------------------3---------------------------|
D:---4-----4--------4-2------------4--------4--4-2------------4------|
A:5---------------------5-4-----4-----4-------------5-2--4/5-----5---|
E:---------------------------2---------------------------------------|
this is a simple one

under the bridge

Jack my swag
#17
It would be better if you all would wait till the one is guessd before you post more...
#18
well no one seems to know my last one yet so heres a harder one =P


E-2---------------------------------
B---2-2-2-2-0---0-2-2-2-2-2-4-2-2
G-------------3-----------------------
<Raven> I got so baked last night
<Raven> that I WOKE UP high o_o
<Raven> Do you have any idea how euphoric that is?
<Raven> I felt like I was being born.