#1
I'm having a hard time with the intro to "No One Knows" by Queens of the Stone Age.

This chord is played 4 times ...

e--------12--------
B---------8---------
G---------x---------
D---------9---------
A---------7---------
E--------------------

(well actually its in C F Bb Eb G C but this is what you play on the strings!)

Does anyone have any tips on reaching that high 12?
#2
i just play it like this

e---------7---------
B---------8---------
G---------9---------
D---------9---------
A---------7---------
E-------------------
#4
This is one of my favorite songs ever, and after listening to it for maybe 30,000 times, im pretty sure he doesnt play that 12 at all. It sounds a lot better to just go thru the whole song without that added note.