#1
Hi, i looked all over the internet and couldnt find a tab for "The Pillows - Scarecrow" and im not that great at tabbing things myself, but i managed to get everything but the solo. Could someone please tab the solo for me, its not that hard of a solo, i just cant seem to get it to sound right, any help would be appreciated.
http://www.youtube.com/watch?v=8My5Qub9AVY
#3
I had a go....

e-----------------------------------------------------------------
B-17^-------------------------------------------------------------
G-----4^--2-2--4-2---1h2-1----------------------------------------
D----------4--------------4-2-4----------------2-2----------------
A--------------------------------4-4-2-0-2--2h4--- 4p2p0-2p0------
E------------------------------------------------------------2-0-2

e----------------------------------------------------------------
B----------------------------------------------------------------
G---------------------------------------------------------4-6----
D------------------2-2-2-2--6-6-6--4-4--2-2/6-7-6-4--4-6-7-------
A---------0-0-2-2-4---------------------------------7------------
E-2-2-4-4--------------------------------------------------------

e---------------------------------------------------
B---------------------------------10-9-9--10/12--14-
G------------------------------9--11-9-9--11/13--14-
D--/4-2--/6-4--/7-6--/9-7--9/11---------------------
A---------------------------------------------------
E---------------------------------------------------


couirer new on notepad to view...