#1
ok sooo the song is "the end of everything i loved" by daphne loves derby

so i tabs out parts of this song which im not completely sure bout by my friends said the song was made in some weird technique with follows the D note... and aparently sings in D to (friend told me i dunno) but it works so ummm yeah

If you wanna see what i got post up that you wanna

plz ask only if your really tryin cuz i dont really wanna type it all out for nothing

thx XP
#6
uhhh.... uhhh.... bump?
do u have guitar pro?
Whitest Kid U' Know of the Bass Militia
PM Dinky Daisy to join


Originally posted by Civildp1
I can't drink tequila anymore. it makes me do terrible things. Terrible naked things.
#10
Are you even allowed to "bump"? (I'm used to it being called "up"... pbnation =T )

Anyways, I can't understand what you're saying about the D or whatever...

And you got guitar pro pretty quickly...and I'm doubting you bought it! =O
^^^^^^^^^^ Don't reply to that
#12
here guys. sorry i've been busy it's hard for me to get to these. someone check this and if it's correct add the tab to ug. hope this helps some


drop D

sorry this is messy but it's better than nothing

Riff 1 (Intro)
e|-----------------------------------------0-------0------------------------|
B|-------3-------3--------3-------3------3---3---3---3-------3--------3-----|
G|-----2---2---2---2----2---2---2---2--2-------2-----------2---2----2---2---|
D|---4-------4--------5-------5--------------------------2--------4---------|
A|--------------------------------------------------------------------------|
D|--------------------------------------------------------------------------|
[the chords playing reversed are C A D]

Riff 2 (Verse)
Guitar 1
e|-----------------------------------------0-------0------------------------|
B|-------3-------3--------3-------3------3---3---3---3-------3--------3-----|
G|-----2---2---2---2----2---2---2---2--2-------2-----------2---2----2---2---|
D|---4-------4--------5-------5--------------------------2--------4---------|
A|--------------------------------------------------------------------------|
D|--------------------------------------------------------------------------|

Guitar 2 strum these
e|------------------|
B|------------------|
G|------------------|
D|--0----4---5------|
A|--0----4---5------|
D|--0----4---5------|

Riff 3 (but i've seen this)
just a change with B and C then works up in octeves from A

Riff 4 (what is the girl who..)
Guitar 1
e|------------------------------------------|
B|------------------------------------------|
G|------------------------------------------|
D|--7---9--7-------9-8-7-6-7-4-10-9-10-7----|
A|--5---9--7---x4--9-8-7-6-5-4-10-9-10-7----|
D|--5---9--7-------9-8-7-6-5-4-10-9-10-7----|

Guitar 2
e|------------------------------------------------|
B|------------------------------------------------|
G|------------------------------------------------|
D|------7------5-4/5\4---------7---7-7-9-7--------|
A|-4-5----4-5----------5--4-5----5---------5------|
D|------------------------------------------------|

Riff 5 (bleeding out so much more)
Guitar 1
e|--------------------|
B|--------------------|
G|--------------------|
D|--5---4----7---10---|
A|--5---4----7---10---|
D|--5---4----7---10---|

Guitar 2 no chords last beats
e|-------------------------|
B|-------------------------|
G|-12-12--11-11--14-14-----|
D|-x--x---x--x---x--x------|
A|-10-10--9--9---12-12-----|
D|-------------------------|

Riff 6 (so i walked to the store and spent a buck 50 in quarters)
Guitar 1
e|---------------------------------|
B|---------------------------------|
G|---------------------------------|
D|--4----5---4---5------a lot------|
A|--4----5---4---5-----------------|
D|--4----5---4---5-----------------|

Guitar 2
e|---------------------------------------------------------|
B|--3-2-------3--5---5--7---7-----3-2-----3/10-8-7-5-3-----|
G|------2-2-2------7--7---7--7-------2-2-------------------|
D|---------------------------------------------------------|
A|---------------------------------------------------------|
D|---------------------------------------------------------|

Riff 7 (is this the end of everything i loved)
e|----------------------------|
B|----------------------------|
G|----------------------------|
D|-7----9-----5--5-5-5--5-----|
A|-7----9-----5--5-5-5--5-----|
D|-7----9-----5--5-5-5--5-----|