#1
Hi, ive been playing this song for a while, and can do it pretty well, but i was wondering if anyone knows the correct picking directions for the intro?

Riff A:
|-----|---|---|--||----------------------------------|-----------------------------------------|
|----------------||----------------------------------|-----------------------------------------|
|----------------||o---------------------------------|-----------------------------------------|
|----------------||o-5-----4-----5-----4-----4-5-----|--5-----4-----5-----4~-------------------|
|----------------||----3-3---3-3---3-3---3-3-----3-3-|----3-3---3-3---3-3-----------7-9-10-----|
|----------------||----------------------------------|-----------------------7-8-10------------|


Ive looked everywhere but cant seem to find it?

Thanks
#4
I'd probably play it starting with an upstroke then 2 down strokes. Then I'd alternate pick the last 6 notes.
#5
          [B]            u u d u u d u u d u u d d u[/B]
Riff A:                   
|-----|---|---|--||----------------------------------|-----------------------------------------|
|----------------||----------------------------------|-----------------------------------------|
|----------------||o---------------------------------|-----------------------------------------|
|----------------||o-5-----4-----5-----4-----4-5-----|--5-----4-----5-----4~-------------------|
|----------------||----3-3---3-3---3-3---3-3-----3-3-|----3-3---3-3---3-3-----------7-9-10-----|
|----------------||----------------------------------|-----------------------7-8-10


above is the pattern I’m using, sorry cant get it to line up, it works for economy but not sure if its right?
#6
I'm pretty sure Paul alternate pics everything. So do i.
¯|(°_o)/¯
#7
Riff A:              d u d d u d d u d d u d d u d u    d u d d u d d u d d  d u d  u d u
|-----|---|---|--||----------------------------------|-----------------------------------------|
|----------------||----------------------------------|-----------------------------------------|
|----------------||o---------------------------------|-----------------------------------------|
|----------------||o-5-----4-----5-----4-----4-5-----|--5-----4-----5-----4~-------------------|
|----------------||----3-3---3-3---3-3---3-3-----3-3-|----3-3---3-3---3-3-----------7-9-10-----|
|----------------||----------------------------------|-----------------------7-8-10------------|


this works for me

btw, what song is this?
#8
It's called "technical difficulties" lol, pretty sick song to
#10
Quote by The Thresher
Hi, ive been playing this song for a while, and can do it pretty well, but i was wondering if anyone knows the correct picking directions for the intro?

Riff A:      
|-----|---|---|--||----------------------------------|-----------------------------------------|
|----------------||----------------------------------|-----------------------------------------|
|----------------||o---------------------------------|-----------------------------------------|
|----------------||o-5-----4-----5-----4-----4-5-----|--5-----4-----5-----4~-------------------|
|----------------||----3-3---3-3---3-3---3-3-----3-3-|----3-3---3-3---3-3-----------7-9-10-----|
|----------------||----------------------------------|-----------------------7-8-10------------|


Ive looked everywhere but cant seem to find it?

Thanks


Alternate picking...sort of.

d u d d u d d u d d u d d u, etc.