#1
So, Here's the image - I totally don't get how you'd do any of it. I know how to read Tabs but what the **** is that?

#2
Just shows you which notes make up the scale. Play them one at a time. Its kind of like a chord chart rather than tab.
Fender Standard Stratocaster (Seymour Duncan JB in Bridge)
Epiphone Explorer
Marshall MG100DFX 100 watt combo
Dunlop Crybaby Wah
Boss DS-2 Distortion
Boss PH-3 Phase Shifter
Boss Dm-2 Delay
Digitech WH4 Whammy
Morely Vol Volume (vintage 1975)
#3
image its a fret board: the lines ar the strings,and the dots shot wut fret to hold
Quote by LesPaulHer0
"in the grand scheme of things, nobody cares"



Gear:
Dean 10K Commemorative Razorback
Ibanez RG 3EX1
BC Rich Mockingbird Evil Edge
Fender Acoustic
Marshall MG250DFX
Ibanez Weeping Demon Wah
Electro Harmonix Small Clone Full Chorus
#4
Image 1:
|-----------------------------1-4---
|-----------------------1-4---------
|-----------------1-3--------------
|-----------1-3--------------------
|-----1-3--------------------------
|1-4--------------------------------

Try that for the first one and tell me how that works out
#5
Image 2:
|-------------------------2-4-----
|--------------------2-4----------
|---------------1-3---------------
|----------1-4--------------------
|-----1-4-------------------------
|2-4------------------------------


Image 3
|-----------------------2-4-----
|------------------2-5----------
|-------------1-4---------------
|---------2-4-------------------
|----2-4-------------------------
|2-4----------------------------

Image 4
|------------------------1-4
|-------------------2-4-----
|--------------1-3----------
|---------1-3---------------
|----1-4--------------------
|1-4------------------------

Image 5
|-------------------------2-4-
|-------------------2-4-------
|--------------1-4------------
|---------1-4-----------------
|----2-4----------------------
|2-4--------------------------
#6
It's MINOR pentatonic (the minor root is hilighted) in different positions. Connect them up the fretboard. Use the red dots (root note) to help you.
#7
Thanks for the help People! I appricate it... Damn It sucks being not only a noob, but a **** guitarist.
#8
I think you're confused because the five diffirent images doesn't show which fret you're on. There's your problem. But I'm too lazy to do it now, sorry m8

EDIT : Or maybe not lol. You seemed happy with the advice you were given before^