#1
So its about time The Pit made up there very own song.

Time for teh rulez!!!
-Dont post lyrics. We will make them up another time.
-Dont make your part overly long
-Make it sound fairly decient

Heres a tab blank to make it easier on you guys:

|---------------------------------------------------------------
|---------------------------------------------------------------
|---------------------------------------------------------------
|---------------------------------------------------------------
|---------------------------------------------------------------
|---------------------------------------------------------------


And ill start.

|------------0--------------------------------------------------
|------1------1------------------------------------------------
|--0-----0---------0-------------------------------------------
|----2-----2-----2--2-----------------------------------------
|3--------------3-----3---------------------------------------
|---------------------------------------------------------------

Please be nice. Dont flame.
Sig space for rent.
$100 obo
Message for negotiaton.
Last edited by penguin-pirate at Jul 20, 2007,
#2
all open strings?
do you have no fingers?

fuck off.
VENUSIAN
FB SC BC TW
Patterns In The Ivy present ethnicity on an intriguing and dedicated level. ~Ambient Exotica
A mesmeric melange of yearning voice, delicate piano and carefully chosen samples. ~Lost Voices
#3
wtf? open strings?
member #3 of the "WELOVEREGGAE" club

Quote by RIM99
Just tell her you're going over to her house to play tiddlywinks and mack that shit.



SPARTAN 296 OF UG'S 300

Jackson Dinky: $67/$499

Master Chief of the UG Society of Ninjas
#4
Fine ill fix it.
I was just bored.
And it sounded like a good idea at the time.
Sig space for rent.
$100 obo
Message for negotiaton.
#5
|--7------------0-------------11---------------------------------
|----19-----------0------------------------------------1----------
|-----------7----------------------------5----------------------
|----------------------9----3-----------------------------------
|--------2------------------------------------8---8--------------
|----------------------------------12----------------------------
#7
I think you meant don't make it too hard, like no sweep arpeggios at 48.320948 gazillion nps.

0
0
0
2
2
0

and there's the easiet chord ever to start us off.
WATCH THIS

Quote by GabeT347
does anybody have a sitar?
Quote by highway62
you have to buy them from george harrison. He owns all of them
#9
Quote by d. b. cooper
I think you meant don't make it too hard, like no sweep arpeggios at 48.320948 gazillion nps.

0
0
0
2
2
0

and there's the easiet chord ever to start us off.

easiest chord ever
0
0
0
0
0
X
Sig space for rent.
$100 obo
Message for negotiaton.
#10

|-0------------------------------------------------------------
|----1/5-5-5-5-----------------------------------------------
|------------------10----8----5---2----1-------------------1
|----------------------------------------0-----1--1----45----


There's a bassline
#11
Quote by Draken

|-0------------------------------------------------------------
|----1/5-5-5-5-----------------------------------------------
|------------------10----8----5---2----1-------------------1
|----------------------------------------0-----1--1----45----


There's a bassline


That works well with my riff.
#12
PM..................................
|-----------------------------------------12p0h15p0h12p0h10p0h12p0h10p0h<9>--|
|-------------------------------<3>~~--------------------------------------------------------|
|5-6-7-8-5-6-7-8-5-6-7-8-----------------------------------------------------------------:|
|4-5-6-7-4-5-6-7-4-5-6-7------------------------------------------------------------------|
|3-4-5-6-3-4-5-6-3-4-5-6-----------------------------------------------------------------:| X2
|-0-0-0-0-0-0-0-0-0-0-0-0-----------------------------------------------------------------|

<...> = pinch harmonic


Fall of Troy style ftw!
Quote by heavyairship
dying hurts

empty sig
#14
|------6-------| |------6-------| |------6-------| |------6-------|
S S S S S S S S S S S S S S S S S S S S S S S S
|--------------------------------------------------------------------------|
|--------------------------------------------------------------------------|
|-------------------------------------19-18-17-----------------------------|
|----------------------------19-18-17----------19-18-17----------19-18-17--|
|----------17-16-15-19-18-17----------------------------19-18-17-----------|
|-17-16-15-----------------------------------------------------------------|


|------6-------| |------6-------| |------6-------| |------6-------|
S S S S S S S S S S S S S S S S S S S S S S S S
|----------------------------------------------------------------22-21-20-|
|-------------------22-21-20----------------------------22-21-20----------|
|----------21-20-19----------21-20-19----------21-20-19-------------------|
|-21-20-19----------------------------21-20-19----------------------------|
|-------------------------------------------------------------------------|
|-------------------------------------------------------------------------|


|------6-------| |------6-------| |---------------13:8----------------|
S S S S S S S S S S S S S S S S S S S S S S S S S
|-23-22-20-23-22-20-23-22-20-23-22-20-23-22-20-23-22-20-21-19-17----------20-|
|----------------------------------------------------------------20-19-17----|
|----------------------------------------------------------------------------|
|----------------------------------------------------------------------------|
|----------------------------------------------------------------------------|
|----------------------------------------------------------------------------|


|---------------13:8----------------| |---------------13:8----------------|
S S S S S S S S S S S S S S S S S S S S S S S S S S
|-19-17----------20-19-17----------20-19-17-------------------------------------|
|-------20-19-17----------20-19-17----------20-19-17-20-19-17-------------------|
|-------------------------------------------------------------20-19-17-20-17----|
|----------------------------------------------------------------------------19-|
|-------------------------------------------------------------------------------|
|-------------------------------------------------------------------------------|
#15
Quote by penguin-pirate
easiest chord ever
0
0
0
0
0
X

I think he meant his was the easiest to play over, being an Em chord and with the guitar having two E strings.
Quote by atomkat
I can't fxcking descripe in words how much I love you!!!!!!!
Quote by MrJayremmie
marry me.
Stratocaster fan...
#16
Quote by rizo299
|------6-------| |------6-------| |------6-------| |------6-------|
S S S S S S S S S S S S S S S S S S S S S S S S
|--------------------------------------------------------------------------|
|--------------------------------------------------------------------------|
|-------------------------------------19-18-17-----------------------------|
|----------------------------19-18-17----------19-18-17----------19-18-17--|
|----------17-16-15-19-18-17----------------------------19-18-17-----------|
|-17-16-15-----------------------------------------------------------------|


|------6-------| |------6-------| |------6-------| |------6-------|
S S S S S S S S S S S S S S S S S S S S S S S S
|----------------------------------------------------------------22-21-20-|
|-------------------22-21-20----------------------------22-21-20----------|
|----------21-20-19----------21-20-19----------21-20-19-------------------|
|-21-20-19----------------------------21-20-19----------------------------|
|-------------------------------------------------------------------------|
|-------------------------------------------------------------------------|


|------6-------| |------6-------| |---------------13:8----------------|
S S S S S S S S S S S S S S S S S S S S S S S S S
|-23-22-20-23-22-20-23-22-20-23-22-20-23-22-20-23-22-20-21-19-17----------20-|
|----------------------------------------------------------------20-19-17----|
|----------------------------------------------------------------------------|
|----------------------------------------------------------------------------|
|----------------------------------------------------------------------------|
|----------------------------------------------------------------------------|


|---------------13:8----------------| |---------------13:8----------------|
S S S S S S S S S S S S S S S S S S S S S S S S S S
|-19-17----------20-19-17----------20-19-17-------------------------------------|
|-------20-19-17----------20-19-17----------20-19-17-20-19-17-------------------|
|-------------------------------------------------------------20-19-17-20-17----|
|----------------------------------------------------------------------------19-|
|-------------------------------------------------------------------------------|
|-------------------------------------------------------------------------------|

wow...
#19
|--------------------------------------------|
|--------------------------------------------|
|--2----------------------------------------|
|--2---2---4-----4--4--4-----------------|
|--0---0---0-----3--3--3-----------------|
|--------------------------------------------|

Melvins ftw
#20
Arthur Curry has to be the most fvcking creative person on this board.
"A war is coming, I've seen it in my dreams. Fires sweeping through the earth, bodies in the streets, cities turned to dust. Retaliation..."


Check out my amazing band!
An Abstract Illusion
#21
Quote by Arthur Curry
|--7------------0-------------11---------------------------------
|----19-----------0------------------------------------1----------
|-----------7----------------------------5----------------------
|----------------------9----3-----------------------------------
|--------2------------------------------------8---8--------------
|----------------------------------12----------------------------

That's a pretty cool riff.
#22
It should just be a simple acoustic song if anything, no complex riffs. Singalong folk stuff.
#23
Quote by ..NEM..
Arthur Curry has to be the most fvcking creative person on this board.


I know, right?
#24
Lol, we had an idea like this a REALLY long time ago, no one really did anything though... It has to be tons of genres put together.
#26
|---------------------------------------------------------------
|---------------------------------------------------------------
|-----------------------------------------3*-------------------
|---------------------------------------------------------------
|---------------------------------------------------------------
|--0------------------------------------------------------------
Bar Dive

* Harmonic


PSN ID: ArranP
#29
|---------------------------------------------------------------
|-----------------------------------------------------------------
|--2-*-2----------2-*-2------------2----2-*-2------------------2----3-
|--2-*-2-----3---2-*-2------0--2- 2----2-*-2----------2--3------
|--0-*-0---3---2-0-*-0-----2--2--0----0-*-0----2--3-------------------
|-------------------------------3--0------------------------------
benchiefjr
UG's Metalcore Guitarist

four times the fun


I want to go river-rafting on top of them