#1
I'm learning the solo, ad i was wondering what's the most effective way of picking this section

Full Full Full Full
) p ) p ) p )
|----/--7---------/-7---------/-7---------/---|
|---/-----10^7---/----10^7---/----10^7---/--7-|
|-9/-----------9/----------9/----------9/-----|
|---------------------------------------------|
|---------------------------------------------|
|---------------------------------------------|

Full Full Full Full
p ) p ) p ) p )
|---------/----------/-7---------/-7---------/-7-|
|-10^7---/-7-10^7---/----10^7---/----10^7---/----|
|------9/---------9/----------9/----------9/-----|
|------------------------------------------------|
|------------------------------------------------|
|------------------------------------------------|
Honestly. Wtf?


Quote by Spay
I should've known...whenever a UGer thinks, it can be a terrible terrible thing


Quote by metaldud536
Fap to him fapping at horse porn? fap?
#2
Don't know if is the most effective way but i play a downstroke on the low E string, upstroke on the B string doing the pull-off and another upstroke on the G string.
Besides being a guitar player, I'm a big fan of the guitar. I love that damn instrument. Steve Vai

Gear:
Kramer Striker FR422SM
Roland Microcube
Digitech Bad Monkey
Dunlop Tortex 1.14mm picks


MY VIDEOS