#1
im a get murdered for this....but i only need certain lil bits and peices from this...

http://mywebpages.comcast.net/mankow84/smusic/cc/scar.pdf

i need to know this in tab form...i know its flute and violin, but still. and i only need the top part translated...the top part wheres theres only one note at a time...when it starts getting like, 3 or 4 at a time, im guessing thats either..well, i don't know what it is...but i only need the singe notes....so if anyone can help that would be AWESOME as hell!!!! and youd be very appreciated and loved and all that. and ill give you a virtual hug (and kiss if nesicary)...so please please please help!!!!!!

the reason i only need the top is cuz i found the bottom part in tabs on this site. i think anyway....but just top!

thanks soooo much!!!!!!!!!!!
My Stuff:

Alvarez acoustic guitar
Peavey Rotor-EXP
BC RICH Warlock Bass
B (Fender Strat Knock off)

Johnson amp
Line 6 Spider III amp
Randall RG-300 Head Amp
#2
you not have like power tab
"while you where fighting i had sex with her and to let you know she ravaged me .......not bragging but she had the biggest penis ever"--cuddles--pwk
#3
--------------0---7---7---5---------------5--------5--------------------------------------------------
---------0-----------------------8--7--8---------8-----8--7---7-----8--7--5------------------------
----2----------------------------------------------------------------------------------------------------
----------------------------------------------------------------------------------------------------------
----------------------------------------------------------------------------------------------------------
----------------------------------------------------------------------------------------------------------
"while you where fighting i had sex with her and to let you know she ravaged me .......not bragging but she had the biggest penis ever"--cuddles--pwk
Last edited by supèr-màn at Jul 22, 2007,
#4
that's for piano
Quote by fob12
If he even admits she's hot, we have another problem altogether.



Quote by dreamtheater91
I would hate 3D porn.
*unzips guys pants*
*giant shlong in your face*
"It's coming right at me!"
#5
--------7---7---7-9--10-11-10-11--9--7--------------------------------5--7------------------5---------5--
-------------------------------------------------10-8-10-12-10-12-10----------8--7--8----8----------8----
----9-----------------------------------------------------------------------------------------------------------------------------------------------------------------------------------------------------------------------------------
--------------------------------------------------------------------------------------------------------------------
--------------------------------------------------------------------------------------------------------------------
"while you where fighting i had sex with her and to let you know she ravaged me .......not bragging but she had the biggest penis ever"--cuddles--pwk
#6
i know its for the piano...but i need it for the guitar.

and thanks super man! for that part...what is power tab? does it like, convert it or something???
My Stuff:

Alvarez acoustic guitar
Peavey Rotor-EXP
BC RICH Warlock Bass
B (Fender Strat Knock off)

Johnson amp
Line 6 Spider III amp
Randall RG-300 Head Amp
#7
--------------------------------------------7--------7--8--7--5-------------------------------------------------------------8--------7--8--7--5-------------------------------------8----7-----5-----7---5--------------
-----------------------------------------7---------------------------------------------------------7---------------------------------------------------------------------------------------------------------------------------------------------------------------------------------------------------------------------------------
--------------------------------------------------------------------------------------------------------------------

there
"while you where fighting i had sex with her and to let you know she ravaged me .......not bragging but she had the biggest penis ever"--cuddles--pwk
#8
and yes powertab or guitar pro u couldve done this ur self
"while you where fighting i had sex with her and to let you know she ravaged me .......not bragging but she had the biggest penis ever"--cuddles--pwk
#9
ok, ill try that! thanks!!!
My Stuff:

Alvarez acoustic guitar
Peavey Rotor-EXP
BC RICH Warlock Bass
B (Fender Strat Knock off)

Johnson amp
Line 6 Spider III amp
Randall RG-300 Head Amp
#10
now how the f do i use it? it doesnt make any sense....
My Stuff:

Alvarez acoustic guitar
Peavey Rotor-EXP
BC RICH Warlock Bass
B (Fender Strat Knock off)

Johnson amp
Line 6 Spider III amp
Randall RG-300 Head Amp
#11
Why don't you just read the sheet music?
Gear...
Peavey 5150, Squier, Ibanez RG2EX2, Yamaha F150, Ibanez RT150, MXR noisegate