#1
I've been trying to learn 'Bark At The Moon' which is supposed to be above my skill level (hey, you'll never get any better if you don't challenge yourself). Anyway, theres apart in the song that goes like this:

E|--------------------------5------ --|
B|-----------6------6------x------6-|
G|-----------5------4------4------5-|
D|-----------3------5------5------3-|
A|-0-0-0-0---0-0----0-0---0-0----|
E|-------------------------------------|


My problem is that during the transitions from chord to chord, I actidentally muffle the G string. Its gettin really annoying. What can I do to fix this problem?
#2
Keep practicing. Play it slower and slower till you can play it perfect and then slowly speed up to regular speed only as you get better.
Quote by acjshapiro

Quote by Vrstone87

meh, I've listened to every radiohead album and honestly don't get what everyone loves about them.....


cause you're ****ing stupid

#3

E|----------------------5--------|
B|---------6------6-----x------6-|
G|---------5------4-----4------5-|
D|---------3------5-----5------3-|
A|-0-0-0-0---0-0----0-0---0-0----| 
E|-------------------------------|
           4      4     3      4
           3      1     1      3
           1      2     2      1

These are the fingerings I would use. Keep your pinky on the F for the first two chords, and mute the B string with your index finger for the third one.