#1
hi i was wondering if anyone could tab a particular solo for me. i've tried figuring it out on my own but it's crazy hard to get some of the licks (at least for me anyway).
you can find the song at www.shaimus.com
there should be a little player thing in the corner and it's called Run My Spirit Down. the solo is from 1:50 to 2:22 i believe.
if it helps the song is in the key of F and the progression underneath the solo is....
F Dm Am Cm7 F7
BbM7 F Bb Bbm F
please help. =)
#3
I've done a little bit. It was really challenging!


e-----------------------------------------------------------------------
B------------------------------------13b15-b15-b15r13-10--10h13p10---10-
G-10--12-10-12b14r12p10---10------10-------------------------------12---
D-----------------------12---10h12--------------------------------------
A-----------------------------------------------------------------------
E-----------------------------------------------------------------------

e-------------------------------------------------10---------13p10-------
B-10h13p10--------------------------------11-11b13--11b13r11------13p11--
G---------9--------9-x-14-12-14---12----12-----------------------------10
D----------10--9p10--x----------------13---------------------------------
A--------------------x-12-10-12------------------------------------------
E------------------------------------------------------------------------

e----------------13-15b17-b17-13--13------
B-------13-13/15----------------15---13b15
G--12/14----------------------------------
D-----------------------------------------
A-----------------------------------------
E-----------------------------------------



Couldn't get the very first lick either....
#4
wow! thank you so much. that's impressive. i've tried and tried to figure this out but it's so tough for me. thanks for your help!