Page 1 of 2
#1
just write your favourite clean melody/riff
Guitars:
Gibson Les Paul Studio
Parker Nitefly with SD Hotrails and JB Two Tone

Amp
Marshall dsl 401

Effect:
Boss DD-6
EHX Big Muff
#4
Quote by mattreid222
the start of wake me up when september ends



OAMG WTFFZ GREEN DAY ARE TEHX SUXORZSX!!!


I kid.
<Han> I love Hitler
#5
Quote by HaKattack
OAMG WTFFZ GREEN DAY ARE TEHX SUXORZSX!!!


I kid.


yeah! you better kidding!!
POST FINDER
#6
Hawian o5. what a cool song/ melody
Quote by Sloopy
I'm not in a wheelchair, but I own one just for fun.
#7
one, metallica
Co founder and fifth member of the "I watched The cptncacklefanny Soap Opera" club. pm Theplague925 or PapaSmurph to join.
#8
it only has light distortion but I really like the begining to shine by collective soul.
#9
Big Sur Moon by buckethead makes me dizzy. also the intro to Destiny by Death. Its so mysterious sounding.
Dinobot clone of the Predacons Beast Wars Club
PM NightmareXT To Join!

Member #6 of the Geddy Lee fan club - pm RIC4003 to join.
UG spartan number 180
#12
Fade to Black (the verse riff) by Metallica or Lack of Comprehension (the intro) by Death
Quote by MightyAl
I lean towards Butthole Surfers because only a butthole would carry a surfboard around a town.

Teh Gearz:

Cruiser Stratocaster
Feng Ling G15 Amplifier
Digitech Grunge Pedal
Daphon E20PH Phaser Pedal
#13
Quote by HaKattack
OAMG WTFFZ GREEN DAY ARE TEHX SUXORZSX!!!


I kid.


No you're not.


Metallica - To Live is to Die interlude

My Youtube Page

I wrote this story so many days ago
and the words kept falling onto pages.
Without the loss we can't go on
and with the loss we became strong.

#16

|------------9p8----------------------------------------|
|-------11--------11----9h11p9---9---7--6-7p6-----------|
|---10---------------10--------8---8----------6---------|
|-8-----------------------------------------------------|
|-------------------------------------------------------|
|-------------------------------------------------------|

|------------9p8----------------------------------------|
|-------11--------11----9h11p9---9---7~~----------------|
|---10---------------10--------8---8--------------------|
|-8-----------------------------------------------------|
|-------------------------------------------------------|
|-------------------------------------------------------|
play twice

|------------9p8----------------------------------------|
|-------11--------11----9h11p9---9---7--6-7p6-----------|
|---10---------------10--------8---8----------6---------|
|-8-----------------------------------------------------|
|-------------------------------------------------------|
|-------------------------------------------------------|

|------------9p8----------------------------------------|
|-------11--------11----9h11p9---9----7~~---------------|
|---10---------------10--------8---8--6~~---------------|
|-8-----------------------------------------------------|
|-------------------------------------------------------|
|-------------------------------------------------------|


#19
The intro to Black Dragon by Dissection, it's so dark and emotional. Fits perfect with the song.
#20
Quote by kroberts8
I saw them play that live about a month ago, love that band.


I wish I could see them play it live. Looks like fun.
#22
half the world away- oasis. Best acoustic song ever.
D-U-F-R-A-I-S


Quote by darkstar2466
WRONG.

The only reason it exists is because drugs get people fucked up, and people love getting fucked up.

#26
Quote by buckethead_jr

|------------9p8----------------------------------------|
|-------11--------11----9h11p9---9---7--6-7p6-----------|
|---10---------------10--------8---8----------6---------|
|-8-----------------------------------------------------|
|-------------------------------------------------------|
|-------------------------------------------------------|

|------------9p8----------------------------------------|
|-------11--------11----9h11p9---9---7~~----------------|
|---10---------------10--------8---8--------------------|
|-8-----------------------------------------------------|
|-------------------------------------------------------|
|-------------------------------------------------------|
play twice

|------------9p8----------------------------------------|
|-------11--------11----9h11p9---9---7--6-7p6-----------|
|---10---------------10--------8---8----------6---------|
|-8-----------------------------------------------------|
|-------------------------------------------------------|
|-------------------------------------------------------|

|------------9p8----------------------------------------|
|-------11--------11----9h11p9---9----7~~---------------|
|---10---------------10--------8---8--6~~---------------|
|-8-----------------------------------------------------|
|-------------------------------------------------------|
|-------------------------------------------------------|






What is that?
<Han> I love Hitler
#29
Ariels by SOAD (Intro)

Benighted by Opeth (whole song is acoustic/ clean guitar, so, whole song)

The Intro to The Drapery Falls by Opeth

EDIT: also, the intro to User-Maat-Re by Nile. it's just so Egyptian and cool
Quote by -Collapse-
Oh, hello mister tracer! Lets dance!
Quote by CodySG
And we all poop in the sandwiches!


New Drug Chat, Eh? CLICK HERE


pass: misterhoffman
Last edited by poopsmith666 at Aug 5, 2007,
#31
A Song for Our Fathers by Explosions in the Sky.
The whole song is fantastic. But especially the guitar intro and the final melody.
"Button my white shirt
Put on some old ragged shoes.
Facade or the truth?"
#32
Neck pickup

----------------15v-----
---------------------
--------11-12-------
----14------------
----------------
-12---------------
Quote by entity0009
some retards decided it would be funny to use mental conditions as insults.
#33
The clean part to master of puppets and A tout Le Monde by Megadeth
Quote by HuckIt
I met this chick I really liked and wanted to practice sex, so I practiced on some guy I met at a gas station...
#35
Quote by sword shredder
Neck pickup

----------------15v-----
---------------------
--------11-12-------
----14------------
----------------
-12---------------

What is that?
#36
Most Frusciante
Various Radiohead riffs
Caring is Creepy-The Shins
Apocalypto-Mew (light distortion but check it out)
#37
Radiohead - Street Spirit
Dream Theater - A Change of Seasons
Metallica - Fade to Black

That's all I can think of
#39
californication- RHCP
right in two- Tool
swing life away- Rise Against
Fender Standard American Stratocaster
Boss DS-1
Budda Budwah
Electroharmonix Small Clone
Vox AD50VT
Page 1 of 2