#1
Hello, I'm not sure if I post it here in the right subject but my guitarteacher gave me a couple of weeks ago a tab of a song to learn but we both don't know from which song it is and I like to know which it is. Forgive me for my bad english since I'm from Holland.


E--------------------------
B--------------------------
G--------------------------
D--------------------------
A---------2-5-5-4-2-----
E-0-0-4------------------ 3 x

E--------------------------
B--------------------------
G--------------------------
D--------------------------
A--------------------------
E-0-0-2-2-3-3-4-4-----

E--------------------------
B--------------------------
G--------------------------
D--------2-5-5-4-2------
A-0-0-4------------------
E-------------------------- 2 x

E--------------------------
B--------------------------
G--------------------------
D--------------------------
A--------2-5-5-4-1------
E-0-0-4------------------ 2 x

E--------------------------
B--------------------------
G--------------------------
D-----------4-7-7-6-4---
A-2-2-4-6----------------
E--------------------------

E--------------------------
B--------------------------
G--------------------------
D--------2-5-5-4-2------
A-0-0-4------------------
E--------------------------

E--------------------------
B--------------------------
G--------------------------
D--------------------------
A---------2-5-5-4-2-----
E-0-0-4------------------

E--------------------------
B--------------------------
G--------------------------
D-4-4-4-4----------------
A-2-2-2-2----------------
E--------------------------


Zeppelin Rules !