#1
could anyone find this for me?

Its got this sweet old school game music, and I'd love to be able to play it on guitar.

The game is just called Pro Wrestling for the Nintendo.
#2

     T T T T T T T T  T S. T T  T S.  T S.  T S.  T T  T T T T  
E||----------3---6---11----8---10----13------------------------|
B||------4---------------------------------11------------------|
G||--5------------------------------------------------10-------|
D||----------------------------------------------13--------8---|
A||------------------------------------------------------------|
E||------------------------------------------------------------|


  W                 
-------------------|
-------------------|
-------------------|
-------------------|
-------------------|
-------------------|


  T T T T T T T T  T S. T T  T S.  T S.  T S.  T T  T T T T  
----------3---6---11----8---10----13------------------------|
--1---4---------------------------------11------------------|
---------------------------------------------------10-------|
----------------------------------------------13--------8---|
------------------------------------------------------------|
------------------------------------------------------------|


  Q    T T T T T T T S. T T T E.  T T S.    S S S S  E  S  E   E   E   S  S S  
-------------------6----6---6------------|------3-6-11--8-10--13--------------|
-------7---6---4--------------------0----|----4-------------------11----------|
-----------------------------------------|--5----------------------------10---|
-----------------------------------------|----------------------------13----8-|
-----------------------------------------|------------------------------------|
-----------------------------------------|------------------------------------|


  W                   S S S S  E  S  E   E   E   S  S S  
-------------------|------3-6-11--8-10--13--------------|
-------------------|--1-4-------------------11----------|
-------------------|-------------------------------10---|
-------------------|----------------------------13----8-|
-------------------|------------------------------------|
-------------------|------------------------------------|


  Q    S S S E  S Q    E    
-------------6--6-6-------||
-------7-6-4-----------0--||
--------------------------||
--------------------------||
--------------------------||
--------------------------||