#1
Okay, my guitar teacher gave me tabs for a little jazz lick, and i can't remember the rhythm... and I CANT PUT IT TOGETHER >.<


----------------------------------------
-6--5----------------------------------
---------7---5--4---------------------
----------------------7---4--5--------
----------------------------------------
----------------------------------------


-----------------------------------------
---------------5---6---8^6^5---------
-------4--7-----------------------7-----
--6---------------------------------------
-----------------------------------------
-----------------------------------------


----------------------
---------------------
-5---------------------
---------------------
---------------------


Very Basic, I just dunno how to give it a jazz feel, any ideas on rhythm.

P.S. the 8^6^5 is really supposed to be 8 6 5 with the bar stretching from the 8 to the 5, kinda like a triplet thing. Post what u think it should sound like, post a video maybe playing this little lick. IDK SOMETHING


FOR FUN


this one is a lot harder for me...


----------5-------7---7---------------------------
--5--8-------8------------------------
----------------------------------------
---------------------------------0----------
---------------------------6---------------
--------------------------------------------


--/7-------/8----/7---------------------------
------------------------8-------------------
----------------------------7----5----3/---
---------------------------------------2/---
------0------------------------------------
-----------------------------------------

-----3----------------------------------
-------------6-----5--------4----------------
-4---------------------------------------
-3--------------------------------------
---------2------3-------4---------------------
----------------------------------------

-------------------------------------
-3-----------------------------------
-----------7----6----5---4---------------
-----0----6----5----4----3--------------
---------------------------------------
-----------6----5----4----3----------------


If you can, make a power tab or video of you playing this. or just some suggestions on how to play it. I can play it 8th notes, however, where to add the jazzy swingin' beats is beyond me :O
#2
syncopation my friend.

put alot of accents on the off beats. know what I mean?
:stickpoke

Baby, if I were biscuits and you were gravy, I'd sop you up

FIGHT IGNORANCE

"I fear for my flesh, but I fear for my spirit even more..."