#1
On How The West Was Won, Page modifies the riff of Over the hills and far away. I was wondering how to play that part. It's hard to explain, but it sounds similar to that beginning riff in the Jackass movies.
#2
that little slide thing? that's in the guitar pro file, it's pretty nice.
#3
The intro? It's just the same parts just played in a different order. And the "hawaiian" sounding bit comes in more often.
Kinda like this:


|------------------3-(3)---------------|-------------2-2-2-2-2-----------|
|----------------0-0-(0)-0-------------|-------------3-3-3-3-3-----------|
|-0h2h0-------0--0-------0-0-0h2p0---0-|-4p2p0-------2-2-2-2-2-0h2p0-----|
|-------4p0------0---------0-------4---|-------0-(0)-0---------------4p0-|
|----------------2---------2-----------|---------------------------------|
|----------------3---------3-----------|---------------------------------|


|------3-(3)------------------------2-2-2-2|
|----0-0-(0)-0----------------------3-3-3-3|
|-0--0-------0----------------------2-2-2-2|
|----0----------------2-----0h2--0---------|
|----2-----------0h2----2------------------|
|----3---------3---------------------------|

|------------------3-(3)---------------|-------------2-2-2-2-2-----------|
|----------------0-0-(0)-0-------------|-------------3-3-3-3-3-----------|
|-0h2h0-------0--0-------0-0-0h2p0---0-|-4p2p0-------2-2-2-2-2-0h2p0-----|
|-------4p0------0---------0-------4---|-------0-(0)-0---------------4p0-|
|----------------2---------2-----------|---------------------------------|
|----------------3---------3-----------|---------------------------------|

|------------------3-(3)---------------|-------------2-2-2-2-2-----------------------------|
|----------------0-0-(0)-0-------------|-------------3-3-3-3-3----h2/(4)/5-5-5-5/7--7-7-7-7|
|-0h2h0-------0--0-------0-0-0h2p0---0-|-4p2p0-------2-2-2-2-2----h1/(3)/5-5-5-5/7--7-7-7-7|
|-------4p0------0---------0-------4---|-------0-(0)-0-------------------------------------|
|----------------2---------2-----------|---------------------------------------------------|
|----------------3---------3-----------|---------------------------------------------------|
                                                                   ^^hawaiian thingy
|----------------------------------------------------------|
|----------------3-3---3-3----3-3-3-3-3-3-3-3-----5-5-5-5--|
|-0h2h0----------0-0---0-0----0-0-0-0-0-0-0-0-----0-0-0-0--|
|-------4p0------2-2---0-0----3-3-3-3-3-3-3-3-----5-5-5-5--|
|--------------3-----2------1------------------1/3---------|
|----------------------------------------------------------|


It's basically that just repeated a couple of times.