#1
I've made some tabs in the last year, but since I know crap about theory I was wondering if this is OK.
Just give me your opinion, it's supposed to be a bit of blues/rock kind of thing.

----------------------------------- -----------------------------------
----------------------------------- -----------------------------------
-3-0-3/5-3----3-0-3/5--------- -9-0-7/9---9-0-7/9---0------
-----------------------------5-------- ----------------------------9------
----------------------------------- -----------------------------------
----------------------------------- -----------------------------------

-----------------------------------
----------------------------------------6-
-9-7~-0H9---9-99--7H9---7--9----
-----------------------------------
-----------------------------------
-----------------------------------
++++++++++++++++++++++++++++++++++++++++++++

----------------------------------- -----------------------3-----------------------
---------------------------------6-- -6-6--3-6-3----3----3---------------------
------3---5-3------3---5-3------- ---------------6----------6p5p3-------5-----3-------
-3/5---5------5-3---5------5---- ----------------------------------------5---5-----5---
----------------------------------- --------------------------------------------
----------------------------------- --------------------------------------------

-----6-8-6-8--------6-8-9p8p6----8---6----10-10-9-8-10------
---8----------8~---8---------------8----8---8------------------8--
-7------------------------------------------------------------
--------------------------------------------------------------
--------------------------------------------------------------
--------------------------------------------------------------

I have more but don't want to post more.

*Sorry if it's a little cramped but for some reason this thing doesn't post the tabs the way I typed them in, fixed it the best I could*
Last edited by Blind Owl at Aug 20, 2007,
#5
there's a forum called tab talk for all your tabbing needs.

Read the FAQs before you post next time.

*reported