#1
is this correct?
e--------------------------------------------------|
B-/12p10----10-12p10----10-15p10----15p10----14p10-|
G--------12----------12----------12-------12-------|
D--------------------------------------------------|
A--------------------------------------------------|
E--------------------------------------------------|
|
|
|
e--------------------------------------------------|
B--------------------------------------------------|
G--------------------------------------------------|
D--------6-----------5-----------------------7-----|
A--------6-----------5-----------------------7-----|
E--0-----------0------------0----0------0----------|


Ab G A

e-----------------------------------------------------|
B-17p15-----15-17p15----20p15--------20p15------19p15-|
G--------16----------16----------16--------16---------|
D-----------------------------------------------------|
A-----------------------------------------------------|
E-----------------------------------------------------|
|
|
|
e-----------------------------------------------------|
B-----------------------------------------------------|
G-----------------------------------------------------|
D--------6-----------5--------------------------7-----|
A--------6-----------5--------------------------7-----|
E--0-----------0-----------0-----0---------0----------|


Ab G A

e----------------19p15----15-19h22p19----19-------------|
B-20p15----15----------15-------------20----20----------|
G-------16----16-------------------------------19-------|
D-------------------------------------------------21----|
A----------------------------------------------------22-|
E-------------------------------------------------------|
|
|
|
e-------------------------------------------------------|
B-------------------------------------------------------|
G-------------------------------------------------------|
D--------6-------------5-----------------------------7--|
A--------6-------------5-----------------------------7--|
E--0-----------0----------------0------0----0-----------|


Ab G A

e-------------------------------------------------|
B-15----------------------------------------------|
G----16-------------------14b~~~~~~~~~\-----------|
D-------17----14----------------------------------|
A----------17----17-16h17-------------------------|
E-------------------------------------------------|
|
|
|
e-------------------------------------------------|
B-------------------------------------------------|
G-------------------------------------------------|
D--------6-----------5----------------------7-----|
A--------6-----------5----------------------7-----|
E--0-----------0-----------0-----0-----0----------|
#2
If the tab came out right then yes, that would be right

there is a way to play it that would make it much easier though...

I'll try to tab it if you want...
Last edited by beadhangingOne at Aug 21, 2007,
#3
yes please try to tab it out i would appreciate it im almost done with the solo but i cant.thank you.
#4
Quote by Megadeth28
is this correct?
e--------------------------------------------------|
B-/12p10----10-12p10----10-15p10----15p10----14p10-|
G--------12---------------12-------------12---------12-------|
D--------------------------------------------------|
A--------------------------------------------------|
E--------------------------------------------------|

E-12p10-----10-12p10----10-15p10----15p10----14p10-|
B----------12-------------12--------------12--------12----------|
G--------------------------------------------------------------------|
D--------------------------------------------------------------------|
A--------------------------------------------------------------------|
E--------------------------------------------------------------------|


e--15p10-----10--19p15----15--22p19-----19p15------------------|
B-----------12---------------15--------------20--------15----------------|
G-------------------------------------------------------------16-------------|
D----------------------------------------------------------------17----------|
A-----------------------------------------------------------------------------|
E-----------------------------------------------------------------------------|

e-------------------------------------------------|
B-15----------------------------------------------|
G----16--------------------------14b~~~~/----|
D-------17p12-14-12p11h12---------------------|
A------------------------------------------------------|
E-----------------------------------------------------|


Well that's how I do it, anyway. It might take quite a bit of getting used to.

http://profile.ultimate-guitar.com/beadhangingOne/

^You can play my cover of Symphony and listen to it, that's how i did it for the solo.
#6
e--------------------------------------------------|
B-/12p10----10-12p10----10-15p10----15p10----14p10-|
G--------12----------12----------12-------12-------|
D--------------------------------------------------|
A--------------------------------------------------|
E--------------------------------------------------|
|
|
|
e--------------------------------------------------|
B--------------------------------------------------|
G--------------------------------------------------|
D--------6-----------5-----------------------7-----|
A--------6-----------5-----------------------7-----|
E--0-----------0------------0----0------0----------|


Ab G A

e-----------------------------------------------------|
B-17p15-----15-17p15----20p15--------20p15------19p15-|
G--------16----------16----------16--------16---------|
D-----------------------------------------------------|
A-----------------------------------------------------|
E-----------------------------------------------------|
|
|
|
e-----------------------------------------------------|
B-----------------------------------------------------|
G-----------------------------------------------------|
D--------6-----------5--------------------------7-----|
A--------6-----------5--------------------------7-----|
E--0-----------0-----------0-----0---------0----------|


Ab G A

e----------------19p15----15-19h22p19----19-------------|
B-20p15----15----------15-------------20----20----------|
G-------16----16-------------------------------19-------|
D-------------------------------------------------21----|
A----------------------------------------------------22-|
E-------------------------------------------------------|
|
|
|
e-------------------------------------------------------|
B-------------------------------------------------------|
G-------------------------------------------------------|
D--------6-------------5-----------------------------7--|
A--------6-------------5-----------------------------7--|
E--0-----------0----------------0------0----0-----------|


Ab G A

e-------------------------------------------------|
B-15----------------------------------------------|
G----16-------------------14b~~~~~~~~~\-----------|
D-------17----14----------------------------------|
A----------17----17-16h17-------------------------|
E-------------------------------------------------|
|
|
|
e-------------------------------------------------|
B-------------------------------------------------|
G-------------------------------------------------|
D--------6-----------5----------------------7-----|
A--------6-----------5----------------------7-----|
E--0-----------0-----------0-----0-----0----------|
You simply MUST check out my music on
Reverbnation Downloads available here
Myspace Streaming Only


Especially for fans of Tool, APC, Avant-Garde, Ambient music, rock instrumentals, and fans of music in general. Will not disappoint.