#1
In the beginning where it has the lead part, it sounds like there is some sliding going on and I dont know what fret you slide from so where do the slides at?

Lead Guitar
E|------------------|------------------|------------------|
B|7---7-6-7-9-10--5-|-6---6-5-6-8---6--|-6---6-5-6-8---6--|
G|------------------|------------------|------------------|
D|------------------|------------------|------------------|
A|------------------|------------------|------------------|
D|------------------|------------------|------------------|

Rhythm Guitar
E|------------------|------------------|------------------|
B|------------------|------------------|------------------|
G|------------------|-7---7-7-7-7---7--|-6---6-6-6-6---6--|
D|4---4-4-4-4-4---4-|-7---7-7-7-7---7--|-6---6-6-6-6---6--|
A|4---4-4-4-4-4---4-|-5---5-5-5-5---5--|-4---4-4-4-4---4--|
D|4---4-4-4-4-4---4-|------------------|------------------|

-----------------------------------------------------------------------------
INTRO (Part Two) - Time Signature - 6/8
-----------------------------------------------------------------------------

Lead Guitar
E|------------|------------|------------|------------|------------|
B|6---6-5-6-8-|9-----9-----|11--9-11-13-|14----14----|--16b-17-r16| Let Ring*
G|------------|------------|------------|------------|------------|
D|------------|------------|------------|------------|------------|
A|------------|------------|------------|------------|------------|
D|------------|------------|------------|------------|------------|
#2
In that part of the tab it shouldn't matter, just slide up to the note from a couple of frets down and it will sound right

btw wrong forums
PiT LURK3R


Quote by _Mayday_
Fellow Transformers, it has come to my attention that we have the mighty Megatron in our midst!




Ninja of the Ninja Club