#1
Hi im trying to learn the solo of it. I'm not sure how to play it at the start


Which one is the better fingering?


-----------------------12-14-17-15-14-
--------------------12---------------
-----------9-11-12-----------------
---------9-------------------------
-7-9-10---------------------------
----------------------------------
1 3 4 1 1 3 4 1 1 1 4 2 1


------------------------12-14-17-15-14-
---------------------12---------------
-----------9-11-12-----------------
---------9-------------------------
-7-9-10---------------------------
----------------------------------
1 3 4 1 1 1 1 1 1 1 4 2 1

Crap it doesnt look right..
Schecter Damien 6
Epiphone G-400
Digitech RP200A
Vox AD30VT-XL
#3
Quote by Jonakin
Hi im trying to learn the solo of it. I'm not sure how to play it at the start


Which one is the better fingering?


-----------------------12-14-17-15-14-
--------------------12---------------
-----------9-11-12-----------------
---------9-------------------------
-7-9-10---------------------------
----------------------------------
1 3 4 1 1 3 4 1 1 1 4 2 1


This one is the better fingering, but it will be easier to play if, every time you have to move your index finger you slide into the next note so the 9 on the d string and the 12 on the B should be slid into, that make the shole thing easier and it'll sound more fluid
R.I.P. My Signature. Lost to us in the great Signature Massacre of 2014.

Quote by Master Foo
“A man who mistakes secrets for knowledge is like a man who, seeking light, hugs a candle so closely that he smothers it and burns his hand.”


Album.
Legion.