#1
Ok So If Im Playing A Rockabilly Stray Cats Sort Of Thing How Do I End?
Say Im In E And I Need The Chord To End On.. Like An Interesting Chord That Finishes the song off..

You Know What I Mean?

Can Someone Please Tab Out The Chord? Or Just Tell Me And Ill Find It..
I Think The Best Endings Go Upto The 12th Fret But I Cannot Figure Out The Chord

Thanks In Advance

Sam
--------------------------------------------------------------------
Grimes - Everyones Favourite Northerner!
#2
HMM, YOU SHOULD REALLY NOT POST WITH THE CAPS LOCK ON.

I tend to finish it with a diminshed chord, like say A7 or whatever would do the trick.
Ibanez PGM301
Ibanez GRG170DX
Fender Telecaster MiJ - 1986
Swing T-Through

Ibanez TS9DX
Sovtek Small Stone - c.1985
EHX Big Muff
Kimbara Wah - c.1974
Boss GE-7

Orange Rocker 30 Combo

http://www.myspace.com/paythelay
#3
Yeah Sorry About The Caps.. But I NEED To Do It.. I Have a Typing Test In A Few Days.. So Im Doing It Just For Practise
--------------------------------------------------------------------
Grimes - Everyones Favourite Northerner!
#4
i doubt any typing test requires you to hold shift before the first letter of every word you type...
#5
Nope But It Helps Me Get To Grips With Doing It Very Fast
--------------------------------------------------------------------
Grimes - Everyones Favourite Northerner!
#7
Anyway This Is About ROCKABILLY Not ****ing Typing Tests.. Please Help Me!
--------------------------------------------------------------------
Grimes - Everyones Favourite Northerner!
#8
Um, I'd say hit the E or Em chord and then slide it up to the E or Em an octave up::

--------------------------
--------------------------
---1/12-----------------
---2/14-----------------
---2/14-----------------
--------------------------

or

--------------------------
--------------------------
--------------------------
---2/14-----------------
---2/14-----------------
--------------------------

Sounds cool if used ciorrectly.
HEY
Do you like anime/manga?
PM me about buying the graphic novels I'm trying to sell