#1
hey dudes for the most part ive got sweep picking down, but im having trouble with the sweeps where you have to role your fingers. anyone else have this problem and what are some exercises that i can do to solve it?
#2
wrong forum. this is the pit, expect the worst.
Guitar: G&L Tribute S-500
Amp: Fender Blues Deluxe
Pedals: Zvex Box of Rock
#3
You have to rub ic


lolno


Ask in the other forum called techniques or something like that.

here youll just get spammed

EDIT: Advanced Techniques.
Quote by ep1kz
wtf? why didnt you punch one of them in the face or something? they're not girls, they are fat chavs, they are their own gender
#5
go to musician talk forum then go to the advanced techniques subforum
<Raven> I got so baked last night
<Raven> that I WOKE UP high o_o
<Raven> Do you have any idea how euphoric that is?
<Raven> I felt like I was being born.
#6
I did at first, Try playing sweeps like this:
A Minor:
|-----------8-12-8
|--------10--------10
|------9---------------9
|---10------------------10
|-12-----------------------12
|--------------------------------

A Major
|-----------9-12-9
|--------10---------10
|------9-----------------9
|---11---------------------11
|-12-------------------------12
|-----------------------

A Diminished
|-----------8-11-8
|--------10--------10
|------8--------------8
|---10------------------10
|-12----------------------12
|---------------------

It is the same notes as the one with the roll, just easier.

Sorry about the sloppyness
#7
start slow, keep it smooth, gain speed

Use the major/minor arpeggios.

Pit's friendly
peanuts and beers
#8
Quote by Infatuation
start slow, keep it smooth, gain speed

Use the major/minor arpeggios.

Pit's friendly


sounds like you're describing sex