#1
Who beleives that this version of the Red Hot Chili Peppers "Higher Ground" would be accepted by the site??

Intro

upstroke
e----7--7------------------7--7-------------------7--7---------------9---9--9---9
B----8--8-----10p8------8--8--------------------8--8----10p8----10-10-10-10
G----9--9------------9----9--9-------------------9--9-----------9---9---9--9---9 2x
D-----------------------------------5h7---5h7---------------------------------------
A---------------------------------7-------7--------------------------------------------
E---------------------------------------------------------------------------------------

Verse

E G A
e--------------------------------
B--------------------------------
G-------------------------------- 4X
D--2-2-2-2-5-5-5-5-7-7-7-7
A--2-2-2-2-5-5-5-5-7-7-7-7
E--0-0-0-0-3-3-3-3-5-5-5-5

F# A B
e---------------------------
B---------------------------
G---------------------------
D--4-4-4-4-7-7-7-9-9-9 3 or 4X
A--4-4-4-4-7-7-7-9-9-9
E--2-2-2-2-5-5-5-7-7-7

For the Part between Verse 1 and Verse 2, play the intro

Chorus

A E E
e-----------------------------------
B-----------------------------------
G----------------------------------- 3X
D--7-7-7-7--2-2-2-2---2-2-2-2
A--7-7-7-7--2-2-2-2---2-2-2-2
E--5-5-5-5--0-0-0-0---0-0-0-0

F# A
e-------------------------------------------
B-------------------------------------------
G-------------------------------------------
D--4-4-4-4-4-4-4-4--7-7-7-7-7-7-7-7 1X
A--4-4-4-4-4-4-4-4--7-7-7-7-7-7-7-7
E--2-2-2-2-2-2-2-2--5-5-5-5-5-5-5-5

Intro is also played between the Verse and the Chorus


Outro

e----0-0-0-0-3--5--3
B----0-0-0-0-3--5--3
G-----------------------
D-----------------------
A-----------------------
E-----------------------

And that's all
#2
hmm, its not the version thats in the book but those are often wrong anyway, and i would put the mutes in the intro in there as well,
#3
Quote by roastchicken
hmm, its not the version thats in the book but those are often wrong anyway, and i would put the mutes in the intro in there as well,

the verse is muted, and its very easy 2 play
#5
Quote by roastchicken
i mean in the intro, put in where the notes a dampened with the fretting hand.

i got ya, thanks
#6
i would like 2 say that ive submitted this tab, with a few adjustments, and i will inform u when it is (hopefully) accepted