#1
Hi,

http://www.youtube.com/watch?v=mlkfimAGevU

I found this video on youtube not long ago and I cant stop listening to it, can anyone tab it out for me (or let me know the chords) or post a link to the tabs/chords. I've already done the usual searches and i've had no luck finding anything so any help is much appreciated.

Thanks again

King
#2
I like this version much better than the original...
Quote by ..NEM..
*hugs back and grabs White Ponys ass*
#4
Here's the intro, verse, chorus and bridge in Dropped C.


| | | |

|--------------------------------|

|6-------6-------5-------8-------|

|7---7---7---7---6---6-----------|

|----7-------7-------7-----------|

|--------------------------------|

|--------------------------------|


| | | |

|--------------------------------|

|3---3---3---3---3---3---3---3---|

|3---0---3---0---2---0---2---0---|

|--------------------------------|

|--------------------------------|

|--------------------------------|


| | | |

|--------------------------------|

|3---3---3-------3---3---3-------|

|3---0---3---5---2---0---2---3---|

|--------------------------------|

|--------------------------------|

|--------------------------------|


| | | |

|--------------------------------|

|--------------------------------|

|2---2---2---3---2---------------|

|3---3---3---5---2---------------|

|--------------------------------|

|--------------------------------|


| | | |

|--------------------------------|

|6-------6-------5-------8-------|

|7---7---7---7---6---6-----------|

|----7-------7-------7-----------|

|--------------------------------|

|--------------------------------|


| | | |

|--------------------------------|

|3---3---3---3---3---3---3---3---|

|3---0---3---0---2---0---2---0---|

|--------------------------------|

|--------------------------------|

|--------------------------------|


| | | |

|--------------------------------|

|3---3---3-------3---3---3-------|

|3---0---3---5---2---0---2---3---|

|--------------------------------|

|--------------------------------|

|--------------------------------|


| | | |

|--------------------------------|

|--------------------------------|

|2---2---2---3---2---------------|

|3---3---3---5---2---------------|

|--------------------------------|

|--------------------------------|


| | | |

|--------------------------------|

|--------------------------------|

|--------------------------------|

|12--12--12--10--7---------------|

|12--12--12--10--7---------------|

|12--12--12--10--7---------------|


| | | |

|--------------------------------|

|--------------------------------|

|--------------------------------|

|7---8---7---5---3---------------|

|7---8---7---5---3---------------|

|7---8---7---5---3---------------|


| | | |

|--------------------------------|

|--------------------------------|

|--------------------------------|

|8---------------5---------------|

|8---------------5---------------|

|8---------------5---------------|


| | | |

|--------------------------------|

|--------------------------------|

|--------------------------------|

|3---------------7---------------|

|3---------------7---------------|

|3---------------7---------------|


| | | |

|--------------------------------|

|--------------------------------|

|--------------------------------|

|12--12--12--10--7---------------|

|12--12--12--10--7---------------|

|12--12--12--10--7---------------|


| | | |

|--------------------------------|

|--------------------------------|

|--------------------------------|

|7---8---7---5---3---------------|

|7---8---7---5---3---------------|

|7---8---7---5---3---------------|


| | | |

|--------------------------------|

|--------------------------------|

|--------------------------------|

|8---------------5---------------|

|8---------------5---------------|

|8---------------5---------------|


| | | |

|--------------------------------|

|--------------------------------|

|--------------------------------|

|3---------------7---------------|

|3---------------7---------------|

|3---------------7---------------|


| | | |

|------------5-------------------|

|------------6-------------------|

|------------7-------------------|

|----0-------7-------------------|

|--------0-----------------------|

|0-------------------------------|


| | | |

|--------------------------------|

|------------10------------------|

|------------10------------------|

|----0-------10------------------|

|--------0---8-------------------|

|0-------------------------------|


| | | |

|------------5-------------------|

|------------6-------------------|

|------------7-------------------|

|----0-------7-------------------|

|--------0-----------------------|

|0-------------------------------|


| | | |

|5-------------------------------|

|6-------------------------------|

|7-------------------------------|

|7-------------------------------|

|0-------------------------------|

|0-------------------------------|


| | | |

|--------------------------------|

|------------10------------------|

|------------10------------------|

|----0-------10------------------|

|--------0---8-------------------|

|0-------------------------------|


| | | |

|--------------------------------|

|10------------------------------|

|10------------------------------|

|10------------------------------|

|8-------------------------------|

|--------------------------------|


| | | |

|1---------------3---------------|

|3---------------3---------------|

|3---------------3---------------|

|3---------------5---------------|

|--------------------------------|

|--------------------------------|


| | | |

|5---------------1---------------|

|5---------------1---------------|

|5---------------2---------------|

|7---------------3---------------|

|--------------------------------|

|--------------------------------|


| | | |

|1-------------------------------|

|1-------------------------------|

|2-------------------------------|

|3-------------------------------|

|--------------------------------|

|--------------------------------|


| | | |

|5-------------------------------|

|5-------------------------------|

|6-------------------------------|

|7-------------------------------|

|0-------------------------------|

|7-------------------------------|


| | | |

|3-------------------------------|

|3-------------------------------|

|3-------------------------------|

|3-------------------------------|

|--------------------------------|

|--------------------------------|


| | | |

|5-------------------------------|

|6-------------------------------|

|7-------------------------------|

|0-------------------------------|

|--------------------------------|

|--------------------------------|


| | | |

|1-------3-----------------------|

|1-------3-----------------------|

|2-------3-----------------------|

|3-------5-----------------------|

|--------------------------------|

|--------------------------------|


| | | |

|3-------5-----------------------|

|5-------6-----------------------|

|5-------7-----------------------|

|5-------0-----------------------|

|--------0-----------------------|

|--------0-----------------------|


| | | |

|1-------3-----------------------|

|1-------3-----------------------|

|2-------3-----------------------|

|3-------5-----------------------|

|--------------------------------|

|--------------------------------|


| | | |

|3-------5-----------------------|

|5-------6-----------------------|

|5-------7-----------------------|

|5-------0-----------------------|

|--------0-----------------------|

|--------0-----------------------|


| | | |

|1-------3-----------------------|

|1-------3-----------------------|

|2-------3-----------------------|

|3-------5-----------------------|

|--------------------------------|

|--------------------------------|


| | | |

|0-------------------------------|

|2-------------------------------|

|2-------------------------------|

|2-------------------------------|

|0-------------------------------|

|2-------------------------------|


| | | |

|5-------------------------------|

|5-------------------------------|

|6-------------------------------|

|7-------------------------------|

|0-------------------------------|

|7-------------------------------|