#1
Does anyone know if there is a tread were we can play the game "Guess the tab"??
Or could I just start one here?
I hope someone knows what i am talking about...
--------------------------------------------------------------
Ok, I see you people started it for me, but I want to make the rules and start first!! So read the RULES I want to use:

1. Dont write a new tab before someone has answered the last tab.
2. Just the person that made the tab can say if the answer is right when anyone ask.
3. Write it like it should be. If the tab gets unreadable in the tread then copy and past it over to notepad or a other writing program to read it.

Any Questions?
Also hints can be used.

My Tab:
|----------------|----------------|-----------------|-----------------|
|----------------|----------------|-----------------|-----------------|
|----------------|----------------4~--|-----------------|-----------------| GTR I
|----4---4-5-4-2-|----4---4-5-----|--4---4-5-4-2|----5-4-2-4-5-4--|
|-2----2---------|-2----2---------|-2----2----------|-3---------------|
|----------------|----------------|-----------------|-----------------|
Last edited by Salute666 at Sep 4, 2007,
#3
Quote by Marvil
I'll start then


A |--7--|

"Black Dog" by Led Zeppelin!

How about...

D |--2--|
A |--2--|
E |--0--|
Quote by SForbz-Rockstar
They weren't homeless they were just Grunge.
#4
Quote by Jekkyl
"Black Dog" by Led Zeppelin!

How about...

D |--2--|
A |--2--|
E |--0--|


"Enter Sandman" by Metallica!

D|-----------------------|
A|-----------------------|
E|--12-0-0-12-0-12--|
#6
|---------------------
|---------------------
|---------------------
|---------------------
|------------------4-4
|--2-2-2-2-2-4-5-7---2
#7
^^^ scarified

e. 8-8-7-5----5----5--/12-10---
b.------------8---6----------------
G.----------------------------------
D.----------------------------------
A.----------------------------------
E.----------------------------------

ha i dont thnk anyone will get that
#8
Quote by jasonthe13th
^^^ scarified

e. 8-8-7-5----5----5--/12-10---
b.------------8---6----------------
G.----------------------------------
D.----------------------------------
A.----------------------------------
E.----------------------------------

ha i dont thnk anyone will get that



gah i dunno try this

|------7---------------
|----------10---7---8-8
|-------------------5-7
|----9---9----9---9-5-5
|----------------------
|--0-------------------