#1
I don't if anyone else feels this way but I think that it's annoying to check tabs pending approval and see 18 versions of smoke on the water being submitted. I mean mostly for the fact that most of them are like this:
___________________________________________________________________
Smoke On The Water Tab by Deep Purple :
|---------------------------------------------------------------------------
|---------------------------------------------------------------------------
|---------------------------------------------------------------------------
|---------------------------------------------------------------------------
|---------------------------------------------------------------------------
|-0-3-5---0-3-6-5---0-3-5---0-3-0-------------------------

if this dus not sound right please fix it but it should sound close.

___________________________________________________________________

__________________________________________________________________
Smoke On The Water Tab by Deep Purple, www.Ultimate-Guitar.Com

e------------------------------------------------------|
b------------------------------------------------------|
g------1------5------7------1------5------6------7-----|
d------2------5------7------2------5------8------7-----|
a------2------3------5------2------3------8------5-----|
E------------------------------------------------------|

e------------------------------------------------------|
b------------------------------------------------------|
g------1------5------7------5------1-------------------|
d------2------5------7------5------2-------------------|
a------2------3------5------3------2--------------|
E------------------------------------------------------|

And that's all i know (bolded for effect)
___________________________________________________________________

So anyway.....I'm posting this for two reasons..

1: To let the people of UG that if you submit a tab for Smoke on the Water by Deep Purple it is almost definitely going to get denied.

2: SO PLEASE JUST DONT

Thanks
0-52...
#3
..okay?
Quote by BeefWellington

what's the point in being "philiosophical"?

Interesting question...
#5
The mods might get on you about your sig, and to stay on topic, who looks at Smoke on the Water tabs?

EDIT: Never mind 'bout the sig.
666 BRO
#6
i guess i wont submit that 100% correct tab i was going to write
...Nothing you've ever...
...Planned on ever turned out...
...The way you planned...


...You're still disappointing them...
#7
Do people honestly think a correct version of Smoke hasn't been submitted yet?
#8
yeah, i guess a lot of them are done by people who just started playing guitar, know nothing of deep purple, and think thats how it's played.. thats how i thought it was for a month before i knew how to tune.
#9
Quote by Kankuro
The mods might get on you about your sig, and to stay on topic, who looks at Smoke on the Water tabs?

I changed my sig...and I like to look at tabs that are pending approval and I usually see 2 or 3 Smoke on.. tabs a day. It's annoying. You (meaning me) don't want the tab to go through so you just keep denying them. Why don't u (other people) just not sub,mit them.
#10
then go to a different website

or be crucified
Quote by BrianApocalypse
They're all covers, but "Think" was actually written by Urethra Franklin.



Founder of the Offical Henry Polfave Sucks club
#11
That doesn't sound right because it's not right

|---------------------------------------------------------------
|---------------------------------------------------------------
|---------------------------------------------------------------
|---------------------------------------------------------------
|----------------6-5------------------------------------------
|-0-3-5---0-3--------0-3-5----3-0------------------------
Last edited by AthenasGhost at Sep 3, 2007,