#1
Ok here are the tabs for this certain part. This is how I am playing it, I "fixed" it a little so that it's easier to play. (Not so much string skipping)

So anyways here's the tabs.

E-|----------------------------------------------------------------------------|
B-|--------------------------------------3-----------3-------------------------|
G-|-10-----9-----7-----5-----4-----2-----------5-----------3------2------9-7-9-|
D-|----7-7---7-7---7-7---2-2---2-2---2-2---3-3---3-3---3-3----0-0---0-0--------|
       PM-   PM-   PM-   PM-   PM-   PM-   PM-   PM-   PM-    PM-   PM-



E-|--------------------------------------------------------------------------------|
B-|--------------------------------------3-----5-----6------8----------8-10-8-10---|
G-|-10-----9-----7-----5-----4-----2------------------------------10---------------|
D-|----7-7---7-7---7-7---2-2---2-2---2-2---3-3---3-3---3-3----8-8----8-------------|
       PM-   PM-   PM-   PM-   PM-   PM-   PM-   PM-   PM-    PM-    PM


So my question is: Do I alternate pick this or downpick it all? Or if it's a mix please explain.

Thx
#4
alternate pick it
BASSLINES TO MAKE YOUR CHEST CAVITY SHUDDER.
#7
id alternate pick it. depends what kinda song it is. most punk songs i learn are supposed to be down picked.
#8
Quote by Jonjy2
So alternate EVERYTHING? Never pick two times in a row in the same direction?

This is gonna be tough

Yes, it stops you from getting fatigued as quickly once you get it down, and makes it all sound more fluid.
#10
downpick that ****er, and is that song ATR?
Endorsed by Framus Amps


Quote by primusfan
you shoulda lynched that nigger.

*spits in spittoon and feels up his cousin*
#11
ALTERNATE!


..just ask Steve Morse
Dissonance is Bliss


Signal Chain:
Carvin CT-4
Ibanez TS-9
Carvin Quad-X
TC Electronics G-Major
Mesa/Boogie 2:90
Ear Candy BuzzBomb



Member #4 of the Carvin Club
#12
wat ever feels most comfortable. Try to play it so you get ready for the next note. If the note is on the 4th string and the next note is on the 6th i would up pick it.
I'll be your number one with a bullet.
#14
i would downpick it, or at the most down pick the e string and play up strokes on the A and D strings. it depends on how fast that is meant to be played however

EDIT:
Quote by tehbensonzorz
downstroke the pedal-point notes (the lower ones)
upstroke the higher intervals

i think its like, economy picking or something? it came naturally to me.

thats not economy picking, an example of alternate picking would be if youve just done an downstroke on the E string and the next note is on the A string you would also hit that with a downstroke, ie with the direction of travel between strings (strict alternate would be an upstroke on the A string)

economy picking on this lick would be down on the higher notes, up on the first pedal note, down on the second pedal note, down on the higher note, etc
Last edited by Diamond Dave at Sep 4, 2007,