#1
Can someone show me how i'm suppose to pick this?


e|-13h17p13-------------13-17-|
B|---------------15-----15---------|
G|-------------------14-------------|

e|-12h15p12----------------------12-15-|
B|--------------13---------------13---------|
G|-----------------12---------12------------|
D|--------------------14---14---------------|
A|-----------------------15------------------|
B.C. Rich Warlock NJ Series, Schecter Omen Extreme-7, Silvertone SIK 1, Yamaha FG700
---
Peavey ValveKing 112 Combo + VK 412 Cab
---
Boss DS-1, Boss MT-2, Dunlop JH-1, Marshall ED-1
#2
e|-13h17p13-------------13-17- u sweep your picking so do hammer and pull of
B|---------------15-----15---------| bit is down 15,is down 14 up 15 up 13 up
G|-------------------14-------------| down and do the same pattern on the other 1
sorry if it ent very clear gd luCK!
e|-12h15p12----------------------12-15-|
B|--------------13---------------13---------|
G|-----------------12---------12------------|
D|--------------------14---14---------------|
A|-----------------------15------------------|
#3
e|-13h17p13-------------13-17-|
B|---------------15-----15---------|
G|-------------------14-------------|
......↓...........↓...↓...↑...↑...↑


e|-12h15p12----------------------12-15-|
B|--------------13---------------13---------|
G|-----------------12---------12------------|
D|--------------------14---14---------------|
A|-----------------------15------------------|
.......↓.......↓..↓..↓..↓..↑..↑..↑..↑

Not quite lined up but I hope that explains it properly :p
#4
e|-13h17p13----------13-17-|
B|----------15----15-------| 
G|-------------14----------|
P|-V--------V--^--^--^--V--|

 
                   
e|-12h15p12----------------------12-15-|
B|----------13----------------13-------|
G|-------------12----------12----------|
D|----------------14----14-------------|
A|-------------------15----------------|
P|-V--------V--V--V--^--^--^--^--^--V--|


The P line is picking, "V" is an upstroke and "^" is a downstroke.

For future reference use code tags for tab
R.I.P. My Signature. Lost to us in the great Signature Massacre of 2014.

Quote by Master Foo
“A man who mistakes secrets for knowledge is like a man who, seeking light, hugs a candle so closely that he smothers it and burns his hand.”


Album.
Legion.
#5
Quote by Jackface20
e|-13h17p13-------------13-17-|
B|---------------15-----15---------|
G|-------------------14-------------|
......↓...........↓...↓...↑...↑...↑


e|-12h15p12----------------------12-15-|
B|--------------13---------------13---------|
G|-----------------12---------12------------|
D|--------------------14---14---------------|
A|-----------------------15------------------|
.......↓.......↓..↓..↓..↓..↑..↑..↑..↑

Not quite lined up but I hope that explains it properly :p



I agree. The first figure sounds awesome with delay and at high tempo
CLICK ME!

Gibson Les Paul Classic '05
JEH Custom Superstrat '07
Rickenbacker 480 '73
Marshall 6100LM head '95
Engl E412SS 4*12" cab '02
Line6 DL-4 '07
Ibanez TS9 '08
Dunlop Crybaby from hell '07
Boss CE-2 '79
Quote by lil-matee
what is a solo?