#1
Hello guys!
I've tried to pick out how to play What if you by Joshua Radin, the way he plays it on the album, but i'm so stuck and have a really hard time figuring it out.
I only know a few short pieces of the song and i wonder if anyone got a tab for this or is able to help out?

Thanks alot.
engstrom: my fingers don't hurt no more!
#2
zach braff haha but i will do it check 2morrow

nvm man theres already a 5star version play that
#3
Quote by njc69
zach braff haha but i will do it check 2morrow

nvm man theres already a 5star version play that



That's the chords, I know those (:
I want to pick it, like it's heared on the album.
engstrom: my fingers don't hurt no more!
#4
I've tried some myself, and this is what i've come up with that sounds at least a little like the song.. tho still not even remotely close to the original. (This is the intro of the song)

Capo 6.

e ------------------------------------------------------------
B ------------------------1-----------------------------------
G ---------0----------0---0--------------0--------------------
D ------2--2--2-0-------2------------0---0--------------------
A -------2--------3-3-------2\3p0------2----------------------
E --0-0--------------------------3-3--------------------------


..then into a D chord and somewhat.

As I said, its not even close to what joshua plays, but its a start (:
Could someone please help me out? Would be fun to figure it out!


(I typed that by "hand" btw .. is there some kind of program that can do it for you?)
engstrom: my fingers don't hurt no more!
#6
It is hard, i have not found a good tab for it either and all I can get, and I do not even think this is right is

---------------------------------------------------------
---------------------------------------------------------
---------------------------------------------------------
---------------------------------------------------------
------------3--------0h2p0---------------------------
-----0---------------------------3----------------------