#1
Hey people of UG.
I know the major and minor pentatonic scales, major and minor scales, blues scales and dominant scales. What other scales can you suggest me to learn? Cheers
My Gear :
Fender American Strat in Metallic Red
EHX Big Muff
Boss ME-50
Boss SD-1
Fender 15 Watt Amp (Upgrade soon to a Marshall )
Red Furry guitar strap

John Frusciante - The Greatest Guitarist EVER
#2
E harmonic minor (i think)
e---------------------------------------7-8-11--
b----------------------------7-8-10-------------
g---------------------8-9------------------------
d-----------7-9-10------------------------------
a-7-9-10----------------------------------------
e--------------------------------------------------

e------------------------------------------------------------11-14-15-
b---------------------------------------------------12-13--------------
g------------------------------------8-11-12-13----------------------
d------------------------9-10-12--------------------------------------
a-------------9-10-11-------------------------------------------------
e--8-10-11------------------------------------------------------------

not really a scale but it sounds cool
e--------------------------------------------9-10-12\15-
b---------------------------------10-8-10----------------
g-------------------------6-7-9---------------------------
d------------------7-5-7----------------------------------
a--------4-5-7--------------------------------------------
e-5-3-5---------------------------------------------------
#3
Quote by Jimbo999
Hey people of UG.
I know the major and minor pentatonic scales, major and minor scales, blues scales and dominant scales. What other scales can you suggest me to learn? Cheers


None more. I'd suggest sticking with just the major scale. Most likely all you've
done is memorize some finger positions. Really *learn* what its all about and
how to use it.
#4
^^ good advice edg

but if you really need to, harmonic and melodic minors would be a good staring point, and also the greek modes in each key.
I want to feel youre body breaking, and shaking, and
left in the cold,
I want to feel youre conscience making, a change to fix
this dying soul....
#5
Ahh cheers guys. Well ive worked out quite a bit of the detail of these scales and played them a lot to get the feel of them etc but I shall continue to practise etc.
My Gear :
Fender American Strat in Metallic Red
EHX Big Muff
Boss ME-50
Boss SD-1
Fender 15 Watt Amp (Upgrade soon to a Marshall )
Red Furry guitar strap

John Frusciante - The Greatest Guitarist EVER
#7
Cheers! Never thought about that section of the forum. thanks anyway
My Gear :
Fender American Strat in Metallic Red
EHX Big Muff
Boss ME-50
Boss SD-1
Fender 15 Watt Amp (Upgrade soon to a Marshall )
Red Furry guitar strap

John Frusciante - The Greatest Guitarist EVER